Trance - Marty Friedman - Guitar Tabs

Guitar
    
                                                                                                                                                                                                                                                                                                                                                                                                                                                                                                                                                                                                                                                                                                                                                                                                                                                                                                                                                                                                                                                                                                                                                                                              
E|-------------------------|-----------------------|
B|-------------------------|-----------------------|
G|-------------------------|-----------------------|
D|--9--------9-----9-----9-|9--7-----7-----7-----7-|
A|--7--------7-----7-----7-|7--5-----5-----5-----5-|
E|-----0--0-----0-----0----|------0-----0-----0----|

    
                                                                                                                                                                                                                                                                                                                                                                                                                                                                                                                                                                                                                                                                                                                                                                                                                                                                                                                                                                                                                                                                                                                                                                                              
E|-------------------------|-----------------------|
B|-------------------------|-----------------------|
G|-------------------------|-----------------------|
D|--7--6-----6-----6-----6-|6--4-----4-----4-----4-|
A|--5--4-----4-----4-----4-|4--2-----2-----2-----2-|
E|--------0-----0-----0----|------0-----0-----0----|

    
                                                                                                                                                                                                                                                                                                                                                                                                                                                                                                                                                                                                                                                                                                                                                                                                                                                                                                                                                                                                                                                                                                                                                                                              
E|-------------------------|-----------------------|
B|-------------------------|-----------------------|
G|-------------------------|-----------------------|
D|--4--9-----9-----9-----9-|9--7-----7-----7-----7-|
A|--2--7-----7-----7-----7-|7--5-----5-----5-----5-|
E|--------0-----0-----0----|------0-----0-----0----|

    
                                                                                                                                                                                                                                                                                                                                                                                                                                                                                                                                                                                                                                                                                                                                                                                                                                                                                                                                                                                                                                                                                                                                                                                              
E|-------------------------|-----------------------|
B|-------------------------|-----------------------|
G|-------------------------|-----------------------|
D|--7--6-----6-----6-----6-|6--4-----4-----4-----4-|
A|--5--4-----4-----4-----4-|4--2-----2-----2-----2-|
E|--------0-----0-----0----|------0-----0-----0----|

    
                                                                                                                                                                                                                                                                                                                                                                                                                                                                                                                                                                                                                                                                                                                                                                                                                                                                                                                                                                                                                                                                                                                                                                                              
E|-------------------------|-----------------------|
B|-------------------------|-----------------------|
G|-------------------------|-----------------------|
D|--4--9-----9-----9-----9-|9--7-----7-----7-----7-|
A|--2--7-----7-----7-----7-|7--5-----5-----5-----5-|
E|--------0-----0-----0----|------0-----0-----0----|

    
                                                                                                                                                                                                                                                                                                                                                                                                                                                                                                                                                                                                                                                                                                                                                                                                                                                                                                                                                                                                                                                                                                                                                                                              
E|-------------------------|-----------------------|
B|-------------------------|-----------------------|
G|-------------------------|-----------------------|
D|--7--6-----6-----6-----6-|6--4-----4-----4-----4-|
A|--5--4-----4-----4-----4-|4--2-----2-----2-----2-|
E|--------0-----0-----0----|------0-----0-----0----|

    
                                                                                                                                                                                                                                                                                                                                                                                                                                                                                                                                                                                                                                                                                                                                                                                                                                                                                                                                                                                                                                                                                                                                                                                              
E|-------------------------|-----------------------|
B|-------------------------|-----------------------|
G|-------------------------|-----------------------|
D|--4--9-----9-----9-----9-|9--7-----7-----7-----7-|
A|--2--7-----7-----7-----7-|7--5-----5-----5-----5-|
E|--------0-----0-----0----|------0-----0-----0----|

    
                                                                                                                                                                                                                                                                                                                                                                                                                                                                                                                                                                                                                                                                                                                                                                                                                                                                                                                                                                                                                                                                                                                                                                                              
E|-------------------------|-----------------------|
B|-------------------------|-----------------------|
G|-------------------------|-----------------------|
D|--7--6-----6-----6-----6-|6--4-----4-----4-----4-|
A|--5--4-----4-----4-----4-|4--2-----2-----2-----2-|
E|--------0-----0-----0----|------0-----0-----0----|

    
                                                                                                                                                                                                                                                                                                                                                                                                                                                                                                                                                                                                                                                                                                                                                                                                                                                                                                                                                                                                                                                                                                                                                                                              
E|-------------------------|-----------------------|
B|-------------------------|-----------------------|
G|-------------------------|-----------------------|
D|--9--------9-----9-----9-|9--7-----7-----7-----7-|
A|--7--------7-----7-----7-|7--5-----5-----5-----5-|
E|-----0--0-----0-----0----|------0-----0-----0----|

    
                                                                                                                                                                                                                                                                                                                                                                                                                                                                                                                                                                                                                                                                                                                                                                                                                                                                                                                                                                                                                                                                                                                                                                                              
E|-------------------------|-----------------------|
B|-------------------------|-----------------------|
G|-------------------------|-----------------------|
D|--7--6-----6-----6-----6-|6--4-----4-----4-----4-|
A|--5--4-----4-----4-----4-|4--2-----2-----2-----2-|
E|--------0-----0-----0----|------0-----0-----0----|

    
                                                                                                                                                                                                                                                                                                                                                                                                                                                                                                                                                                                                                                                                                                                                                                                                                                                                                                                                                                                                                                                                                                                                                                                              
E|-------------------------|-----------------------|
B|-------------------------|-----------------------|
G|-------------------------|-----------------------|
D|--4--9-----9-----9-----9-|9--7-----7-----7-----7-|
A|--2--7-----7-----7-----7-|7--5-----5-----5-----5-|
E|--------0-----0-----0----|------0-----0-----0----|

    
                                                                                                                                                                                                                                                                                                                                                                                                                                                                                                                                                                                                                                                                                                                                                                                                                                                                                                                                                                                                                                                                                                                                                                                              
E|-------------------------|-----------------------|
B|-------------------------|-----------------------|
G|-------------------------|-----------------------|
D|--7--6-----6-----6-----6-|6--4-----4-----4-----4-|
A|--5--4-----4-----4-----4-|4--2-----2-----2-----2-|
E|--------0-----0-----0----|------0-----0-----0----|

    
                                                                                                                                                                                                                                                                                                                                                                                                                                                                                                                                                                                                                                                                                                                                                                                                                                                                                                                                                                                                                                                                                                                                                                                              
E|-------------------------|-----------------------|
B|-------------------------|-----------------------|
G|-------------------------|-----------------------|
D|--4--9-----9-----9-----9-|9--7-----7-----7-----7-|
A|--2--7-----7-----7-----7-|7--5-----5-----5-----5-|
E|--------0-----0-----0----|------0-----0-----0----|

    
                                                                                                                                                                                                                                                                                                                                                                                                                                                                                                                                                                                                                                                                                                                                                                                                                                                                                                                                                                                                                                                                                                                                                                                              
E|-------------------------|-----------------------|
B|-------------------------|-----------------------|
G|-------------------------|-----------------------|
D|--7--6-----6-----6-----6-|6--4-----4-----4-----4-|
A|--5--4-----4-----4-----4-|4--2-----2-----2-----2-|
E|--------0-----0-----0----|------0-----0-----0----|

    
                                                                                                                                                                                                                                                                                                                                                                                                                                                                                                                                                                                                                                                                                                                                                                                                                                                                                                                                                                                                                                                                                                                                                                                              
E|-------------------------|-----------------------|
B|-------------------------|-----------------------|
G|-------------------------|-----------------------|
D|--4--9-----9-----9-----9-|9--7-----7-----7-----7-|
A|--2--7-----7-----7-----7-|7--5-----5-----5-----5-|
E|--------0-----0-----0----|------0-----0-----0----|

    
                                                                                                                                                                                                                                                                                                                                                                                                                                                                                                                                                                                                                                                                                                                                                                                                                                                                                                                                                                                                                                                                                                                                                                                              
E|-------------------------|-----------------------|
B|-------------------------|-----------------------|
G|-------------------------|-----------------------|
D|--7--6-----6-----6-----6-|6--4-----4-----4-----4-|
A|--5--4-----4-----4-----4-|4--2-----2-----2-----2-|
E|--------0-----0-----0----|------0-----0-----0----|

    
                                                                                                                                                                                                                                                                                                                                                                                                                                                                                                                                                                                                                                                                                                                                                                                                                                                                                                                                                                                                                                                                                                                                                                                              
E|-------------------------|-----------------------|
B|-------------------------|-----------------------|
G|-------------------------|-----------------------|
D|--9--------9-----9-----9-|9--7-----7-----7-----7-|
A|--7--------7-----7-----7-|7--5-----5-----5-----5-|
E|-----0--0-----0-----0----|------0-----0-----0----|

    
                                                                                                                                                                                                                                                                                                                                                                                                                                                                                                                                                                                                                                                                                                                                                                                                                                                                                                                                                                                                                                                                                                                                                                                              
E|-------------------------|-----------------------|
B|-------------------------|-----------------------|
G|-------------------------|-----------------------|
D|--7--6-----6-----6-----6-|6--4-----4-----4-----4-|
A|--5--4-----4-----4-----4-|4--2-----2-----2-----2-|
E|--------0-----0-----0----|------0-----0-----0----|

    
                                                                                                                                                                                                                                                                                                                                                                                                                                                                                                                                                                                                                                                                                                                                                                                                                                                                                                                                                                                                                                                                                                                                                                                              
E|-------------------------|-----------------------|
B|-------------------------|-----------------------|
G|-------------------------|-----------------------|
D|--4--9-----9-----9-----9-|9--7-----7-----7-----7-|
A|--2--7-----7-----7-----7-|7--5-----5-----5-----5-|
E|--------0-----0-----0----|------0-----0-----0----|

    
                                                                                                                                                                                                                                                                                                                                                                                                                                                                                                                                                                                                                                                                                                                                                                                                                                                                                                                                                                                                                                                                                                                                                                                              
E|-------------------------|-----------------------|
B|-------------------------|-----------------------|
G|-------------------------|-----------------------|
D|--7--6-----6-----6-----6-|6--4-----4-----4-----4-|
A|--5--4-----4-----4-----4-|4--2-----2-----2-----2-|
E|--------0-----0-----0----|------0-----0-----0----|

    
                                                                                                                                                                                                                                                                                                                                                                                                                                                                                                                                                                                                                                                                                                                                                                                                                                                                                                                                                                                                                                                                                                                                                                                              
E|-------------------------|-----------------------|
B|-------------------------|-----------------------|
G|-------------------------|-----------------------|
D|--4--9-----9-----9-----9-|9--7-----7-----7-----7-|
A|--2--7-----7-----7-----7-|7--5-----5-----5-----5-|
E|--------0-----0-----0----|------0-----0-----0----|

    
                                                                                                                                                                                                                                                                                                                                                                                                                                                                                                                                                                                                 
E|-------------------------|
B|-------------------------|
G|-------------------------|
D|--7--6-----6-----6-----6-|
A|--5--4-----4-----4-----4-|
E|--------0-----0-----0----|

About Scenes (album) : Marty Friedman's second studio album, Scenes, released on November 17, 1992 . It is a notable stylistic departure from his first album, Dragon's Kiss . The final track, "Triumph", is a remake of "Thunder March" Scenes gave Scenes three stars out of five . The production by KitarĊ and keyboards by Brian BecVar were also heavily praised . AllMusic gave the recording a "level of depth and maturity" Scenes (album)'s most popular songs include Triumph,Thunder March,Dragon's Kiss. It had a contribution from notable artists like Marty Friedman. It had an affiliation to bands - Scenes. Its music is influenced by genres - instrumental rock , ambient.

tabs and chords, guitar tabs, music transcription, music technology, deep learning, music information retrieval, transcribe into tabs & chords, chordify, music renditions, songsterr, reverbnation, tabulature, bollywood chords, ultimate guitar, yousician, guitar lessons, acoustic guitar, electric guitar, guitar tuner, 911 tabs