Guitar Tabs for Todos Querem Ser Irmãos 2

TODOS QUEREM SER IRMÃOS, MAS NÃO TEM A LEALDADE
E|--------------------------------------------------------------------------------------------------
B|--------------------1-----------0-----------------------------------------------------------------
G|--------2--------------------2--------2--------------0--0-----------------------------------------
D|--2--2-----------2--------------------------2--------------------3--0--------2--------------------
A|--------------------------------------------------------------------------------3-----0-----------
E|--------------------------------------------------------------------------------------------0-----

TODOS QUEREM SER IRMÃOS, MAS NÃO TEM A LEALDADE
E|--------------------------------------------------------------------------------------------------
B|--------------------1-----------0-----------------------------------------------------------------
G|--------2--------------------2--------2--------------0--0-----------------------------------------
D|--2--2-----------2--------------------------2--------------------3--0--------2--------------------
A|--------------------------------------------------------------------------------3-----0-----------
E|--------------------------------------------------------------------------------------------------

PARA SEGUIR NA VIDA ESPÍRITA QUE É O REINO DA VERDADE
E|--------------------------------------------------------------------------------------------------
B|--------------------------------------------------------------------------------------------------
G|--------0--0-----------------------2--2--2--------------------------------------------------------
D|--2--2--------------3--0--------3-----------2--------------2--------0-----------------------------
A|-----------------------------------------------0--------3--------------2--------3--0--------------
E|--------------------------------------------------------------------------------------------------

PARA SEGUIR NA VIDA ESPÍRITA QUE É O REINO DA VERDADE
E|--------------------------------------------------------------------------------------------------
B|--------------------------------------------------------------------------------------------------
G|--------0--0-----------------------2--2--2--------------------------------------------------------
D|--2--2--------------3--0--------3-----------2--------------2--------0-----------------------------
A|-----------------------------------------------0--------3--------------2--------3--0--------------
E|--------------------------------------------------------------------------------------------------





POR RICELLY AMARAL
tabs and chords, guitar tabs, music contests, music covers, songsterr, reverbnation, renditions, tabulature, bollywood chords, ultimate guitar, yousician, guitar lessons, torrins, fender, gibson, acoustic guitar, electric guitar, youtube covers, gootar, guitar tuner, A-Z tabs, 911 tabs