Guitar Tabs for Todos Querem Ser Irmãos

TODOS QUEREM SER IRMÃOS, MAS NÃO TEM A LEALDADE

E|--------------0-----------0-----------------------0-----------3-----------3-----------------------
B|--------------1-----1-----1-----0-----------------1-----------3-----------3-----------------------
G|--------2-----2-----------2--2--------2-----------2--0--0-----0-----------0-----------------------
D|--2--2--------2--2--------2-----------------2-----2-----------0--3--0-----0--2--------------------
A|--------------0-----------0-----------------------0-----------2-----------2-----3-----0-----------
E|--------------------------------------------------------------3-----------3-----------------0-----

TODOS QUEREM SER IRMÃOS, MAS NÃO TEM A LEALDADE

E|--------------0-----------0-----------------------0-----------3-----------3-----------------0--
B|--------------1-----1-----1-----0-----------------1-----------3-----------3-----------------1--
G|--------2-----2-----------2--2--------2-----------2--0--0-----0-----------0-----------------2--
D|--2--2--------2--2--------2-----------------2-----2-----------0--3--0-----0--2--------------2--
A|--------------0-----------0-----------------------0-----------2-----------2-----3-----0-----0--
E|--------------------------------------------------------------3-----------3--------------------

PARA SEGUIR NA VIDA ESPÍRITA QUE É O REINO DA VERDADE

E|-----------------3-----------3-----------------------0-----------0-----------0--------0--0--0--0--
B|-----------------3-----------3-----------------------1-----------0-----------0--------1--1--1--1--
G|--------0--0-----0-----------0-----2--2--2-----------2-----------1-----------1--------2--2--2--2--
D|--2--2-----------0--3--0-----0--3-----------2--------2-----2-----2--0--------2--------2--2--2--2--
A|-----------------2-----------2-----------------0-----0--3--------2-----2-----2--3--0--0--0--0--0--
E|-----------------3-----------3-----------------------------------0-----------0--------------------

PARA SEGUIR NA VIDA ESPÍRITA QUE É O REINO DA VERDADE

E|-----------------3-----------3-----------------------0-----------0-----------0--------0--0--0--0--
B|-----------------3-----------3-----------------------1-----------0-----------0--------1--1--1--1--
G|--------0--0-----0-----------0-----2--2--2-----------2-----------1-----------1--------2--2--2--2--
D|--2--2-----------0--3--0-----0--3-----------2--------2-----2-----2--0--------2--------2--2--2--2--
A|-----------------2-----------2-----------------0-----0--3--------2-----2-----2--3--0--0--0--0--0--
E|-----------------3-----------3-----------------------------------0--------------------------------




POR RICELLY AMARAL
tabs and chords, guitar tabs, music transcription, music technology, deep learning, music information retrieval, transcribe into tabs & chords, chordify, music renditions, songsterr, reverbnation, tabulature, bollywood chords, ultimate guitar, yousician, guitar lessons, acoustic guitar, electric guitar, guitar tuner, 911 tabs