Guitar Tabs for Timmies - Losing Interest

(/) Slide Up  (\) Slide Down  (h) Hammer On  (p) Pull Off  (b) Bend (r) Release (v) Vibrato (x) Muted

Tabs for Song : Timmies - Losing Interest

Losing Intrest
E|--1-----1--x--
B|--2-----2--x--
G|--3-----3--x--
D|-----------x--
A|--1-----1--x--
E|-----------x--
You won't find no better than this
E|--------1-----1--x--------2-----2--x--
B|--------1-----1--x--------2-----2--x--
G|--------1-----1--x--------3-----3--x--
D|--------3-----3--x--------4-----4--x--
A|-----------------x-----------------x--
E|-----------------x-----------------x--
I swear, girl

If you leave, just let me know
E|--------2-----2--x--------1-----1--x--
B|--------4-----4--x--------1-----1--x--
G|--------3-----3--x--------1-----1--x--
D|--------1-----1--x--------3-----3--x--
A|-----------------x-----------------x--
E|-----------------x-----------------x--
So I won't look dumb
E|--------2-----2--x--------2-----2--x--------
B|--------2-----2--x--------4-----4--x--------
G|--------3-----3--x--------3-----3--x--------
D|--------4-----4--x--------1-----1--x--------
A|-----------------x-----------------x--------
E|-----------------x-----------------x--------
When you move on
tabs and chords, guitar tabs, music contests, music covers, songsterr, reverbnation, renditions, tabulature, bollywood chords, ultimate guitar, yousician, guitar lessons, torrins, fender, gibson, acoustic guitar, electric guitar, youtube covers, gootar, guitar tuner, A-Z tabs, 911 tabs