Guitar Tabs for Losing Streak

(/) Slide Up  (\) Slide Down  (h) Hammer On  (p) Pull Off  (b) Bend (r) Release (v) Vibrato (x) Muted

Intro
E|--2--5--0--
B|--2--5--0--
G|--2--6--1--
D|--4--7--2--
A|--4--7--2--
E|--2--5--0--

or

E|-----------------------------------------
B|-----------------------------------------
G|-----------------------------------------
D|--------------------7---9/11\9--7--9--7--
A|--9--9--7--9--9--7-----------------------
E|-----------------------------------------

Verse
E|--2--5--0--
B|--2--5--0--
G|--2--6--1--
D|--4--7--2--
A|--4--7--2--
E|--2--5--0--

Chorus
E|-----------------------------------
B|--7--5--10-7--5--10-7--5--10-9-----
G|--7--6--11-7--6--11-7--6--11-9--7--
D|--7--6--11-7--6--11-7--6--11-9--6--
A|--5--4--9--5--4--9--5--4--9--7--7--
E|--------------------------------0--

Structure:
Intro (0:13 - 0:26) 
Verse (0:26 - 0:39)
Chorus (0:43 - 0:56)
Intro (0:56 - 1:09)
Verse (1:09 - 1:22)
Chorus (1:26 - 1:52)
Verse (no guitar)(1:52 - 2:07)
Chorus (2:10 - 2:36)
Intro (2:36 - end)
tabs and chords, guitar tabs, music transcription, music technology, deep learning, music information retrieval, transcribe into tabs & chords, chordify, music renditions, songsterr, reverbnation, tabulature, bollywood chords, ultimate guitar, yousician, guitar lessons, acoustic guitar, electric guitar, guitar tuner, 911 tabs