Bass Tabs for Tiger Of San Pedro

(/) Slide Up  (\) Slide Down  (h) Hammer On  (p) Pull Off  (b) Bend (r) Release (v) Vibrato (x) Muted

Tabs for Song : 
BPM : 200

Song lyrics here 
G|--------2--------3--------2--------3--------2--------3--------2--------3--------2--------3--------2-----
D|---7\0-----0--1-----1--0-----0--1--------0-----0--1-----1--0-----0--1--------0-----0--1-----1--0-----0--
A|--------------------------------------0-----------------------------------0-----------------------------
E|--------------------------------------------------------------------------------------------------------

G|-----3--------2--------3--------2--------------------------------------------2-----2--------2--------2-----
D|--1--------0-----0--1-----1--0-----0--0-----3-----3--3--------3-----2--2--------0-----0--0-----0--0-----0--
A|--------0--------------------------------3-----1--------1--1-----1--------0--------------------------------
E|-----------------------------------------------------------------------------------------------------------

G|-----2--------2--------3--------2--------3--------2--------3--------2--------3--------2--------3-----
D|--0-----0--0-----0--1-----1--0-----0--1--------0-----0--1-----1--0-----0--1--------0-----0--1-----1--
A|--------------------------------------------0-----------------------------------0--------------------
E|-----------------------------------------------------------------------------------------------------

G|-----2--------3--------2--------3--------2--------------------------------------------2-----2--------2-----
D|--0-----0--1--------0-----0--1-----1--0-----0--0-----3-----3--3--------3-----2--2--------0-----0--0-----0--
A|-----------------0--------------------------------3-----1--------1--1-----1--------0-----------------------
E|-----------------------------------------------------------------------------------------------------------

G|-----2--------2-----------------------------------------------------------------------------
D|--0-----0--0-----0--0--0--0--0--0--0--1--0--0--0--0--0--0-----0--0--0--0--0--0--0--1--0-----
A|-----------------------------------------------------------0-----------------------------0--
E|--------------------------------------------------------------------------------------------
REPEAT START
G|-----2--------3--------2--------2--------2--------3--------2--------------------------------------
D|--0-----0--1-----1--0-----0-----------0-----0--1-----1--0-----0--0-----3-----2--2--------3--3-----
A|-----------------------------0-----0--------------------------------3-----1--------1--1--------1--
E|--------------------------------------------------------------------------------------------------

G|-----------2-----2--------2--------2--------2--------2--------3--------2--------2--------2--------3-----
D|--2--2--------0-----0--0-----0--0-----0--0-----0--0-----0--1-----1--0-----0-----------0-----0--1-----1--
A|--------0--------------------------------------------------------------------0-----0--------------------
E|--------------------------------------------------------------------------------------------------------

G|-----2-----------------------------------------------2-----2--------2--------2--------2-----
D|--0-----0--0-----3-----3--3--------3--3-----2--2--------0-----0--0-----0--0-----0--0-----0--
A|--------------3-----1--------1--1--------1--------0-----------------------------------------
E|--------------------------------------------------------------------------------------------

G|-----------------------------------------------------------------------
D|--0--0--0--0--0--0--1--0--0--0--0--0--0-----0--0--0--0--0--0--1--0-----
A|-----------------------------------------0--------------------------0--
E|-----------------------------------------------------------------------
REPEAT ENDS
G|-----------------------------7--------8--------7--------7--------7--------8--------7-----------4-----4-----
D|--0--1--0--1--0--1--0--0--5-----5--6-----6--5-----5-----------5-----5--6-----6--5-----5--3--3-----2-----2--
A|-----------------------------------------------------5-----5-----------------------------------------------
E|-----------------------------------------------------------------------------------------------------------

G|-----4-----2--2-----------------------------------------------------------------------------------------------
D|--2-----2--------0--0-----------------------------------------0-----------------------------------------0-----
A|--------------------------------------------------------------------------------------------------------------
E|-----------------------3--3--3--3--3--3--4--3--3--3--3--3--3-----3--3--3--3--3--3--4--3--3--3--3--3--3-----3--

Song lyrics here 
G|--
D|--
A|--
E|--

Use manual mode to free up cursor. Paste any tab in acousterr tab maker and we'll play it !!!
tabs and chords, guitar tabs, music transcription, music technology, deep learning, music information retrieval, transcribe into tabs & chords, chordify, music renditions, songsterr, reverbnation, tabulature, bollywood chords, ultimate guitar, yousician, guitar lessons, acoustic guitar, electric guitar, guitar tuner, 911 tabs