Guitar Tabs for San

(/) Slide Up  (\) Slide Down  (h) Hammer On  (p) Pull Off  (b) Bend (r) Release (v) Vibrato (x) Muted

Tabs for Song : 
BPM : 200

VERSE                                                                 CHROUS
E|-----x--------------x--------------x-----------x--------------------x-----x-----x-----x-----x-----x-----x-----x-----------
B|-----x-----------3--x--------3-----x-----------x--------------------x-----x-----x-----x-----x-----x-----x-----x-----------
G|-----x-----------0--x--------0-----x--------2--x-----------------0--x--0--x--0--x--0--x-----x-----x--2--x--2--x-----------
D|-----x--------------x--------------x--------0--x-----------------2--x--2--x-----x-----x--0--x--0--x--0--x--0--x-----------
A|-----x-----2--3-----x--------------x-----------x--------------------x-----x--3--x--3--x-----x-----x-----x-----x-----------
E|--0--x--------------x-----3--------x---0h2-----x--------------------x-----x-----x-----x--3--x--3--x-----x-----x-----------

PLAY THIS ONCE AT THE END OF CHROUS
E|--------------
B|--------------
G|---2\-4/2--0--
D|---0\---------
A|-----------
E|-----------

Use manual mode to free up cursor. Paste any tab in acousterr tab maker and we'll play it !!!
tabs and chords, guitar tabs, music transcription, music technology, deep learning, music information retrieval, transcribe into tabs & chords, chordify, music renditions, songsterr, reverbnation, tabulature, bollywood chords, ultimate guitar, yousician, guitar lessons, acoustic guitar, electric guitar, guitar tuner, 911 tabs