Guitar Tabs for Tierrita Mojada - Ed Maverick

Gus~ 

BPM : 124
Capo second fret
B Minor Scale 

Intro, most of the song:
    
       C     C     C     C     C           E     E     E           Am    Am    Am          F     F     G     G
F|-----0-----0-----0-----0-----0-----------0-----0-----0-----------0-----0-----0-----------0-----0-----0-----0-----
C|-----1-----1-----1-----1-----1-----------0-----0-----0-----------1-----1-----1-----------1-----1-----3-----3-----
A|-----0-----0-----0-----0-----0-----------1-----1-----1-----------2-----2-----2-----------2-----2-----4-----4-----
E|-----2-----2-----2-----2-----2-----------2-----2-----2-----------2--0--0--2--2--0--2--3--3-----3--5--5-----5-----
B|--3--3-----3--3--3-----3--3--3-----------2--0--0--2--2--2--1--0--0-----0-----0-----------3--3--3-----5--5--5-----
F|--------3--3--------3--3--------3--2--0--0-----------------------------------------------------------------------

       C     C              To Start
F|-----0-----0-----------------
C|-----1-----1-----------------
A|-----0-----0-----------------
E|-----2-----2-----------------
B|--3--3-----3--3-----0--2--3--
F|--------3--------3-----------

Bridge, outro:

       F     F     G     G        C        C        C  C7
F|-----0-----0-----0-----0--------0--------0--------0--0--------
C|-----1-----1-----3-----3--------1--------1--------1--1--------
A|-----2-----2-----4-----4--------0--------0--------0--3--------     x3
E|--3--3-----3--5--5-----5---0h2--2---0h2--2---0h2--2--2--------
B|-----3--3--3-----5--5--5--------3--------3--------3--3--------
F|--------------------------------------------------------------

       F     F  
F|-----0-----0--------------------------
C|-----1-----1--------------------------
A|-----2-----2--------------------------
E|--3--3-----3--5-----------------------
B|-----3--3--3-----------------0--2--3--
F|--------------------------3-----------

Outro:


F|--------------------------------------------------------
C|--1--------0-----------------1-----1--0-----------------
A|--------------------2--------------------2--0-----------  x2
E|-----------------------------------------------2-------- 
B|--------------------------------------------------------
F|--------------------------------------------------------

F|-----------------------------------------------------------------------------
C|--1--------0-----------------1-----1--0--------------------------------------
A|--------------------2--------------------2--0--------------------------------  
E|-----------------------------------------------2-----------0----------------- 
B|--------------------------------------------------------------------3--------
F|-----------------------------------------------------------------------------


F|-----------------------------------------
C|--1--------0-----------------------0--1--
A|--------------------2--------0--2--------
E|-----------------------------------------
B|-----------------------------------------
F|-----------------------------------------
tabs and chords, guitar tabs, music transcription, music technology, deep learning, music information retrieval, transcribe into tabs & chords, chordify, music renditions, songsterr, reverbnation, tabulature, bollywood chords, ultimate guitar, yousician, guitar lessons, acoustic guitar, electric guitar, guitar tuner, 911 tabs