Guitar Tabs for Thousand Yearse - Christina Perri Tabs

(/) Slide Up  (\) Slide Down  (h) Hammer On  (p) Pull Off  (b) Bend (r) Release (v) Vibrato

Tabs for Song : Thousand Years

E|-----------------------------------------------------------------
B|--3-----3--3-----1-----3--3-----3--1-----4--4-----4--------3--3--
G|-----------------------------------------------------3-----------
D|-----------------------------------------------------------------
A|-----------------------------------------------------------------
E|-----------------------------------------------------------------

Stave 2:

E|-----------------
B|--1--------------
G|-----3--2--------
D|-----------3-----
A|-----------------
E|-----------------

E|-----------------------------------------
B|--------------3--1-----------------------
G|--3--3-----3-----------3-----3--3--3-----
D|-----------------------------------------
A|-----------------------------------------
E|-----------------------------------------

how to be brave
E|-----1--------------1--------------
B|--------4--3-----------4--3--------
G|--------------3--0-----------3-----
D|-----------------------------------
A|-----------------------------------
E|-----------------------------------

Stave 3:

E|-----------------|--------|-----------------|--------|-----1--------
B|--1--3-----------|--------|--------3--1-----|--------|--------4--3--
G|--------2--3--2--|--3--3--|--3--3--------3--|--3--3--|--3-----------
D|-----------------|--------|-----------------|--------|--------------
A|-----------------|--------|-----------------|--------|--------------
E|-----------------|--------|-----------------|--------|--------------

Stave 4:

E|-----1--------|--------------|-----|--3--5--|--6--|--5--|-----1--------1-----
B|--------4--3--|--1--3--------|-----|--------|-----|-----|--3-----3--3-----3--
G|--3-----------|--------2--3--|--0--|--------|-----|-----|--------------------
D|--------------|--------------|-----|--------|-----|-----|--------------------
A|--------------|--------------|-----|--------|-----|-----|--------------------
E|--------------|--------------|-----|--------|-----|-----|--------------------

Stave 5:

E|--3--1-----------|-----1--------1-----|--3--1-----------------|-----------|-----------------
B|--------1--1-----|--3-----3--3-----3--|--------1--1--------1--|--4--3-----|--------1-----1--
G|--------------3--|--------------------|--------------3--3-----|--------3--|--0--3-----3-----
D|-----------------|--------------------|-----------------------|-----------|-----------------
A|-----------------|--------------------|-----------------------|-----------|-----------------
E|-----------------|--------------------|-----------------------|-----------|-----------------


Song lyrics here
E|--
B|--
G|--
D|--
A|--
E|--

Song lyrics here
E|--
B|--
G|--
D|--
A|--
E|--

Add more lines by placing cursor below and adding notes
tabs and chords, guitar tabs, music contests, music covers, songsterr, reverbnation, renditions, tabulature, bollywood chords, ultimate guitar, yousician, guitar lessons, torrins, fender, gibson, acoustic guitar, electric guitar, youtube covers, gootar, guitar tuner, A-Z tabs, 911 tabs