Guitar Tabs for A Thousand Years - Christina Perri Tabs

(/) Slide Up  (\) Slide Down  (h) Hammer On  (p) Pull Off  (b) Bend (r) Release (v) Vibrato (x) Muted

Tabs for Song : 

Song lyrics here
E|-----------------------------------------------------------------------------------------------------------------------------
B|--3--------3--------3--------1--------3--------3--------3--------1--------4--------4--------4-----------------3--------3-----
G|-----------------------------------------------------------------------------------------------------3-----------------------
D|-----------------------------------------------------------------------------------------------------------------------------
A|-----------------------------------------------------------------------------------------------------------------------------
E|-----------------------------------------------------------------------------------------------------------------------------

E|--------------------------------------------------------------------1-----------------1-----------------
B|--1-----------------------------------3--1-----------------------------4--3--------------4--3-----1-----
G|--------3--2--------3-----3-----3-----------3-----3-----3-----3--------------3--0--------------3--------
D|--------------3-----------------------------------------------------------------------------------------
A|--------------------------------------------------------------------------------------------------------
E|--------------------------------------------------------------------------------------------------------

Song lyrics here
E|--------------------------------------------------------------------1--------------
B|--3-----------------------------------3--1-----------------------------4--3--------
G|-----2--3--0-----3-----3-----3-----3--------3-----3-----3-----3--------------3-----
D|-----------------------------------------------------------------------------------
A|-----------------------------------------------------------------------------------
E|-----------------------------------------------------------------------------------

E|--1--------------------------------3-----5-----6--------5--------1--------1--------
B|-----4--3-----1--3--------------------------------------------3-----3--3-----3-----
G|--------------------2--3-----0-----------------------------------------------------
D|-----------------------------------------------------------------------------------
A|-----------------------------------------------------------------------------------
E|-----------------------------------------------------------------------------------

E|--3--1-----------------1--------1--------3-----1-----------------------------------
B|--------1--1--------3-----3--3-----3--------------1--1--------1-----4-----3--------
G|--------------3-----------------------------------------3--3-----------------3-----
D|-----------------------------------------------------------------------------------
A|-----------------------------------------------------------------------------------
E|-----------------------------------------------------------------------------------

E|-----------------------------------------6-----5-----1--------------------------------------------------
B|-----------1-----1-----4-----3-----1--------------------------------------------3--1--------------------
G|-----0--3-----3-----------------------------------------------3-----3-----3-----------3-----3-----3-----
D|--------------------------------------------------------------------------------------------------------
A|--------------------------------------------------------------------------------------------------------
E|--------------------------------------------------------------------------------------------------------

E|--------1--------------------1--------------------------------------------------------------
B|-----------4--3-----------------4--3--------1--3--------------------------------3--1--------
G|--3--------------3-----0--------------3-----------2--3-----3-----3-----3-----3--------3-----
D|--------------------------------------------------------------------------------------------
A|--------------------------------------------------------------------------------------------
E|--------------------------------------------------------------------------------------------

E|--------1-----------1--------------------1-----------------------------------3-----5-----6-----5--
B|-----------------------4--3-----------------4--3-----1--3-----------------------------------------
G|--3-----------3--------------3-----0-----------------------2--3-----0-----------------------------
D|--------------------------------------------------------------------------------------------------
A|--------------------------------------------------------------------------------------------------
E|--------------------------------------------------------------------------------------------------

E|--
B|--
G|--
D|--
A|--
E|--

Paste any tab in acousterr's tab maker and we'll play it !!!
Now supports capo and sound effects for vibrato/pull-off/hammer/bends/mutes etc !!! Checkout help section
tabs and chords, guitar tabs, music transcription, music technology, deep learning, music information retrieval, transcribe into tabs & chords, chordify, music renditions, songsterr, reverbnation, tabulature, bollywood chords, ultimate guitar, yousician, guitar lessons, acoustic guitar, electric guitar, guitar tuner, 911 tabs