Guitar Tabs for The Voice

(/) Slide Up  (\) Slide Down  (h) Hammer On  (p) Pull Off  (b) Bend (r) Release (v) Vibrato

Tabs for Song : 

Song lyrics here
E|--0--------------------------------------0--3--0----------------------0---------------------0----1-----0--3--3--3--0---------------
B|-----3--1--1--------------------------1-----------1--3-----1--0--------3---1-1--------1--3--------------------------1--3--1--3--1---
G|--------------0--0--2--0-------0-----0------------------2-----------------------0--0-----------------------------------------------
D|--------------------------3--------------------------------------------------------------------------------------------------------
A|-----------------------------------------------------------------------------------------------------------------------------------
E|-----------------------------------------------------------------------------------------------------------------------------------

Song lyrics here
E|--------5--5--0--3--0--0--0--0--------------5--0--3--0-----------------
B|-----1--------------------------3--1-----1--------------1--3-----1--0--
G|--------------------------------------------------------------2--------
D|-----------------------------------------------------------------------
A|-----------------------------------------------------------------------
E|-----------------------------------------------------------------------

Add more lines by placing cursor below and adding notes
tabs and chords, guitar tabs, music transcription, music technology, deep learning, music information retrieval, transcribe into tabs & chords, chordify, music renditions, songsterr, reverbnation, tabulature, bollywood chords, ultimate guitar, yousician, guitar lessons, acoustic guitar, electric guitar, guitar tuner, 911 tabs