Voice - L'arc~en~ciel - Guitar Tabs

Ken IV
    
                                                                                                                                                                                                                                                                                                                                                                                                                                                                                                                                                                                                 
E|--12----12-12-12----12-12---|
B|--15-------15-------15-15---|
G|--12-------12-------12-12---|
D|--14-------14-------14-14---|
A|--15-------15-------15-15---|
E|----------------------------|

    
                                                                                                                                                                                                                                                                                                                                                                                                                                                                                                                                                                                                                                                                                                                                                                                                                                                                                                                                                                                                                                                                                                                                                                                              
E|--------10-10-10----10-10---|12----12-12-12----12-12---|
B|-----------8--------8--8----|15-------15-------15-15---|
G|--11-------11-------11-11---|12-------12-------12-12---|
D|--12-------12-------12-12---|12-------12-------12-12---|
A|----------------------------|14-------14-------14-14---|
E|----------------------------|--------------------------|

    
                                                                                                                                                                                                                                                                                                                                                                                                                                                                                                                                                                                                                                                                                                                                                                                                                                                                                                                                                                                                                                                                                                                                                                                              
E|--12----12-12-12----12-12---|12----12-12-12----12-12---|
B|--15-------15-------15-15---|15-------15-------15-15---|
G|--12-------12-------12-12---|12-------12-------12-12---|
D|--14-------14-------14-14---|14-------14-------14-14---|
A|--15-------15-------15-15---|15-------15-------15-15---|
E|----------------------------|--------------------------|

    
                                                                                                                                                                                                                                                                                                                                                                                                                                                                                                                                                                                                                                                                                                                                                                                                                                                                                                                                                                                                                                                                                                                                                                                              
E|--------10-10-10----10-10---|12----12-12-12----12-12---|
B|-----------8--------8--8----|12----12-12-12----12-12---|
G|--11-------11-------11-11---|12-------12-------12-12---|
D|--12-------12-------12-12---|14-------14-------14-14---|
A|----------------------------|14-------14-------14-14---|
E|----------------------------|12-------12-------12-12---|

    
                                                                                                                                                                                                                                                                                                                                                                                                                                                                                                                                                                                                                                                                                                                                                                                                                                                                                                                                                                                                                                                                                                                                                                                              
E|--12----12-12-12----12-12---|12----12-12-12----12-12---|
B|--12----12-12-12----12-12---|15-------15-------15-15---|
G|--12-------12-------12-12---|12-------12-------12-12---|
D|--14-------14-------14-14---|14-------14-------14-14---|
A|--14-------14-------14-14---|15-------15-------15-15---|
E|--12-------12-------12-12---|--------------------------|

    
                                                                                                                                                                                                                                                                                                                                                                                                                                                                                                                                                                                                                                                                                                                                                                                                                                                                                                                                                                                                                                                                                                                                                                                              
E|--------10-10-10----10-10---|12----12-12-12----12-12---|
B|-----------8--------8--8----|15-------15-------15-15---|
G|--11-------11-------11-11---|12-------12-------12-12---|
D|--12-------12-------12-12---|12-------12-------12-12---|
A|----------------------------|14-------14-------14-14---|
E|----------------------------|--------------------------|

    
                                                                                                                                                                                                                                                                                                                                                                                                                                                                                                                                                                                                                                                                                                                                                                                                                                                                                                                                                                                                                                                                                                                                                                                              
E|--12----12-12-12----12-12---|12----12-12-12----12-12---|
B|--15-------15-------15-15---|15-------15-------15-15---|
G|--12-------12-------12-12---|12-------12-------12-12---|
D|--14-------14-------14-14---|14-------14-------14-14---|
A|--15-------15-------15-15---|15-------15-------15-15---|
E|----------------------------|--------------------------|

    
                                                                                                                                                                                                                                                                                                                                                                                                                                                                                                                                                                                                                                                                                                                                                                                                                                                                                                                                                                                                                                                                                                                                                                                              
E|--------10-10-10----10-10---|12----12----12-12----12|
B|-----------8--------8--8----|12----12----12-12----12|
G|--11-------11-------11-11---|12----12-------12----12|
D|--12-------12-------12-12---|14----14-------14----14|
A|----------------------------|14----14-------14----14|
E|----------------------------|12----12-------12----12|

    
                                                                                                                                                                                                                                                                                                                                                                                                                                                                                                                                                                                                                                                                                                                                                                                                                                                                                                                                                                                                                                                                                                                                                                                              
E|-----12-12----12-12-12---|10-------12----12-12-12|
B|-----12-12----12-12-12---|8--------12----12-12---|
G|--------12----12----12---|9--------------12-12---|
D|--------14----14----14---|10-------------14-14---|
A|--------14----14----14---|---------------15-15---|
E|--------12----12----12---|-----------------------|

    
                                                                                                                                                                                                                                                                                                                                                                                                                                                                                                                                                                                                                                                                                                                                                                                                                                                                                                                                                                                                                                                                                                                                                                                              
E|--15----15-15----15-15-15|12----12-12----12-12-12|
B|--12----12-------0--0----|12----12-------12-12---|
G|--12----12-------16-16---|12----12-------12-12---|
D|--12----12-------17-17---|14----14-------14-14---|
A|--14----14-------17-17---|14----14-------14-14---|
E|--15----15-------15-15---|12----12-------12-12---|

    
                                                                                                                                                                                                                                                                                                                                                                                                                                                                                                                                                                                                                                                                                                                                                                                                                                                                                                                                                                                                                                                                                                                                                                                              
E|--12----12-12----12-12-12|12-------12----12-12-12|
B|--15----15-14----14-14---|12-------12----12-12---|
G|--14----14-------14-14---|12-------------12-12---|
D|--14----14-------14-14---|14-------------14-14---|
A|--12----12---------------|15-------------15-15---|
E|-------------------------|-----------------------|

    
                                                                                                                                                                                                                                                                                                                                                                                                                                                                                                                                                                                                                                                                                                                                                                                                                                                                                                                                                                                                                                                                                                                                                                                              
E|--15----15-15-12----12-12-12|12----12-12-12----12-12-12|
B|--12-------0--------12-12---|12-------12-------12-12---|
G|--12-------16-------12-12---|12-------12-------12-12---|
D|--12-------17-14----14-14---|14-------14-------14-14---|
A|--14-------17-------14-14---|14-------14-------14-14---|
E|--15-------15-12----12-12---|12-------12-------12-12---|

    
                                                                                                                                                                                                                                                                                                                                                                                                                                                                                                                                                                                                                                                                                                                                                                                                                                                                                                                                                                                                                                                                                                                                                                                              
E|--12----12-12-12----12-12-12|10-------12----12-12-12|
B|--12-------12-------12-12---|8--------12----12-12---|
G|--12-------12-------12-12---|9--------------12-12---|
D|--14-------14-------14-14---|10-------------14-14---|
A|--14-------14-------14-14---|---------------15-15---|
E|--12-------12-------12-12---|-----------------------|

    
                                                                                                                                                                                                                                                                                                                                                                                                                                                                                                                                                                                                                                                                                                                                                                                                                                                                                                                                                                                                                                                                                                                                                                                              
E|--15----15-15----15-15-15|12----12-12----12-12-12|
B|--12----12-------0--0----|12----12-------12-12---|
G|--12----12-------16-16---|12----12-------12-12---|
D|--12----12-------17-17---|14----14-------14-14---|
A|--14----14-------17-17---|14----14-------14-14---|
E|--15----15-------15-15---|12----12-------12-12---|

    
                                                                                                                                                                                                                                                                                                                                                                                                                                                                                                                                                                                                                                                                                                                                                                                                                                                                                                                                                                                                                                                                                                                                                                                              
E|--12----12-12----12-12-12|12-------12----12-12-12|
B|--15----15-14----14-14---|12-------12----12-12---|
G|--14----14-------14-14---|12-------------12-12---|
D|--14----14-------14-14---|14-------------14-14---|
A|--12----12---------------|15-------------15-15---|
E|-------------------------|-----------------------|

    
                                                                                                                                                                                                                                                                                                                                                                                                                                                                                                                                                                                                                                                                                                                                                                                                                                                                                                                                                                                                                                                                                                                                                                                              
E|--15----15-15-12----12-12-12|12----12----12-12-12-12|
B|--12-------0--------12-12---|12----12-------12-12---|
G|--12-------16-------12-12---|12----12-------12-12---|
D|--12-------17-14----14-14---|14----14-------14-14---|
A|--14-------17-------14-14---|14----14-------14-14---|
E|--15-------15-12----12-12---|12----12-------12-12---|

    
                                                                                                                                                                                                                                                                                                                                                                                                                                                                                                                                                                                                                                                                                                                                                                                                                                                                                                                                                                                                                                                                                                                                                                                              
E|--12----12----12-12-12-12|12----12-12-12----12-12---|
B|--12----12-------12-12---|15-------15-------15-15---|
G|--12----12-------12-12---|12-------12-------12-12---|
D|--14----14-------14-14---|14-------14-------14-14---|
A|--14----14-------14-14---|15-------15-------15-15---|
E|--12----12-------12-12---|--------------------------|

    
                                                                                                                                                                                                                                                                                                                                                                                                                                                                                                                                                                                                                                                                                                                                                                                                                                                                                                                                                                                                                                                                                                                                                                                              
E|--------10-10-10----10-10---|12----12-12-12----12-12---|
B|-----------8--------8--8----|15-------15-------15-15---|
G|--11-------11-------11-11---|12-------12-------12-12---|
D|--12-------12-------12-12---|12-------12-------12-12---|
A|----------------------------|14-------14-------14-14---|
E|----------------------------|--------------------------|

    
                                                                                                                                                                                                                                                                                                                                                                                                                                                                                                                                                                                                                                                                                                                                                                                                                                                                                                                                                                                                                                                                                                                                                                                              
E|--12----12-12-12----12-12---|12----12-12-12----12-12---|
B|--15-------15-------15-15---|15-------15-------15-15---|
G|--12-------12-------12-12---|12-------12-------12-12---|
D|--14-------14-------14-14---|14-------14-------14-14---|
A|--15-------15-------15-15---|15-------15-------15-15---|
E|----------------------------|--------------------------|

    
                                                                                                                                                                                                                                                                                                                                                                                                                                                                                                                                                                                                                                                                                                                                                                                                                                                                                                                                                                                                                                                                                                                                                                                              
E|--------10-10-10----10-10---|12----12----12-12----12|
B|-----------8--------8--8----|12----12----12-12----12|
G|--11-------11-------11-11---|12----12-------12----12|
D|--12-------12-------12-12---|14----14-------14----14|
A|----------------------------|14----14-------14----14|
E|----------------------------|12----12-------12----12|

    
                                                                                                                                                                                                                                                                                                                                                                                                                                                                                                                                                                                                                                                                                                                                                                                                                                                                                                                                                                                                                                                                                                                                                                                              
E|-----12-12----12-12-12---|10-------12----12-12-12|
B|-----12-12----12-12-12---|8--------12----12-12---|
G|--------12----12----12---|9--------------12-12---|
D|--------14----14----14---|10-------------14-14---|
A|--------14----14----14---|---------------15-15---|
E|--------12----12----12---|-----------------------|

    
                                                                                                                                                                                                                                                                                                                                                                                                                                                                                                                                                                                                                                                                                                                                                                                                                                                                                                                                                                                                                                                                                                                                                                                              
E|--15----15-15----15-15-15|12----12-12----12-12-12|
B|--12----12-------0--0----|12----12-------12-12---|
G|--12----12-------16-16---|12----12-------12-12---|
D|--12----12-------17-17---|14----14-------14-14---|
A|--14----14-------17-17---|14----14-------14-14---|
E|--15----15-------15-15---|12----12-------12-12---|

    
                                                                                                                                                                                                                                                                                                                                                                                                                                                                                                                                                                                                                                                                                                                                                                                                                                                                                                                                                                                                                                                                                                                                                                                              
E|--12----12-12----12-12-12|12-------12----12-12-12|
B|--15----15-14----14-14---|12-------12----12-12---|
G|--14----14-------14-14---|12-------------12-12---|
D|--14----14-------14-14---|14-------------14-14---|
A|--12----12---------------|15-------------15-15---|
E|-------------------------|-----------------------|

    
                                                                                                                                                                                                                                                                                                                                                                                                                                                                                                                                                                                                                                                                                                                                                                                                                                                                                                                                                                                                                                                                                                                                                                                              
E|--15----15-15-12----12-12-12|12----12-12-12----12-12-12|
B|--12-------0--------12-12---|12-------12-------12-12---|
G|--12-------16-------12-12---|12-------12-------12-12---|
D|--12-------17-14----14-14---|14-------14-------14-14---|
A|--14-------17-------14-14---|14-------14-------14-14---|
E|--15-------15-12----12-12---|12-------12-------12-12---|

    
                                                                                                                                                                                                                                                                                                                                                                                                                                                                                                                                                                                                                                                                                                                                                                                                                                                                                                                                                                                                                                                                                                                                                                                              
E|--12----12-12-12----12-12-12|10-------12----12-12-12|
B|--12-------12-------12-12---|8--------12----12-12---|
G|--12-------12-------12-12---|9--------------12-12---|
D|--14-------14-------14-14---|10-------------14-14---|
A|--14-------14-------14-14---|---------------15-15---|
E|--12-------12-------12-12---|-----------------------|

    
                                                                                                                                                                                                                                                                                                                                                                                                                                                                                                                                                                                                                                                                                                                                                                                                                                                                                                                                                                                                                                                                                                                                                                                              
E|--15----15-15----15-15-15|12----12-12----12-12-12|
B|--12----12-------0--0----|12----12-------12-12---|
G|--12----12-------16-16---|12----12-------12-12---|
D|--12----12-------17-17---|14----14-------14-14---|
A|--14----14-------17-17---|14----14-------14-14---|
E|--15----15-------15-15---|12----12-------12-12---|

    
                                                                                                                                                                                                                                                                                                                                                                                                                                                                                                                                                                                                                                                                                                                                                                                                                                                                                                                                                                                                                                                                                                                                                                                              
E|--12----12-12----12-12-12|12-------12----12-12-12|
B|--15----15-14----14-14---|12-------12----12-12---|
G|--14----14-------14-14---|12-------------12-12---|
D|--14----14-------14-14---|14-------------14-14---|
A|--12----12---------------|15-------------15-15---|
E|-------------------------|-----------------------|

    
                                                                                                                                                                                                                                                                                                                                                                                                                                                                                                                                                                                                                                                                                                                                                                                                                                                                                                                                                                                                                                                                                                                                                                                              
E|--15----15-15-12----12-12-12|12----12----12-12-12-12|
B|--12-------0--------12-12---|12----12-------12-12---|
G|--12-------16-------12-12---|12----12-------12-12---|
D|--12-------17-14----14-14---|14----14-------14-14---|
A|--14-------17-------14-14---|14----14-------14-14---|
E|--15-------15-12----12-12---|12----12-------12-12---|

    
                                                                                                                                                                                                                                                                                                                                                                                                                                                                                                                                                                                                 
E|--12-12-12-12-12----12-14|
B|--12-12-12----12-------15|
G|--12-12-12----12-------16|
D|--14-14-14----14-------16|
A|--14-14-14----14-------14|
E|--12-12-12----12---------|

About Dune (L'Arc-en-Ciel album) : Dune is the debut album by Japanese rock band L'Arc-en-Ciel . It was released by the independent label Danger Crue Records . Regular edition reached number 1 on Oricon indies chart on May 10 . A 10th anniversary edition of Dune was released on April 21, 2004 . It A recording of "Floods of Tears" was previously released as a single on November 25, 1992 . The version of the song included on the album is different and does not feature original drummer Pero . It had an affiliation to bands - L'Arc-en-Ciel. Its music is influenced by genres - post-punk.

tabs and chords, guitar tabs, music transcription, music technology, deep learning, music information retrieval, transcribe into tabs & chords, chordify, music renditions, songsterr, reverbnation, tabulature, bollywood chords, ultimate guitar, yousician, guitar lessons, acoustic guitar, electric guitar, guitar tuner, 911 tabs