Guitar Tabs for The View (lead Guitar)

(/) Slide Up  (\) Slide Down  (h) Hammer On  (p) Pull Off  (b) Bend (r) Release (v) Vibrato (x) Muted

Intro:
Don't you dare try to say that you understand,
Because even if you think you do I don't think you can,
When you never gave a damn about the ground beneath your feet,
Or the life and times and souls of all the people that you meet,
And everything backfired,
E|-----------------------------------------------------------------------------------------
B|-----------------------------------------------------------------------------------------
G|--------------------------------------6--6-----6--6-----8--8--------------------------6--
D|--6--6-----6--6-----8--8-----8--8-----6--6-----6--6-----8--8-----6-----6--8-----8-----6--
A|--6--6-----6--6-----8--8-----8--8-----4--4-----4--4-----6--6-----6-----6--8-----8-----4--
E|--4--4-----4--4-----6--6-----6--6--------------------------------4-----4--6-----6--------

Pre-Verse 1 Interlude Solo:
E|--8-----------------------------------------------------------------------8--9--11-9-----8---8h-9p8--
B|-----9-----------9-----------9-----11-9-----------------9-----11-9-----11----------------------------
G|--------8-----8-----8--7--------------------7--7--6--------------------------------------------------
D|-----------------------------------------------------------------------------------------------------
A|-----------------------------------------------------------------------------------------------------
E|-----------------------------------------------------------------------------------------------------

E|--8-----------------------------------------------------------------------8--9--11----11-11/18----16-
B|-----9-----------9-----------9-----11-9-----------------9-----11-9-----11----------------------------
G|--------8-----8-----8--7--------------------7--7--6--------------------------------------------------
D|-----------------------------------------------------------------------------------------------------
A|-----------------------------------------------------------------------------------------------------
E|-----------------------------------------------------------------------------------------------------

Verse 1: 
You see the writing on the wall,
That reminds me when it's all about to fall,
E|-----------------------------------------------------------------------------------------------------------
B|-----------------------------------------------------------------------------------------------------------
G|-----------------------------------------------------------------------------------------------------------
D|-----------------------------------------------------------------------------------------------------------
A|--------------------------------------------------------4-----4--4--4--4--4--4-----6-----6--6--6--6--6--6--
E|--4-----4--4--4--4--4--4-----6-----6--6--6--6--6--6--------------------------------------------------------
Apart my heart is dying,
E|-----------------------------------------------------------------------------------------------------------
B|-----------------------------------------------------------------------------------------------------------
G|-----------------------------------------------------------------------------------------------------------
D|-----------------------------------------------------------------------------------------------------------
A|-----------------------------------------------------------------------------------------------------------
E|--4-----4--4--4--4--4--4-----2-----2--2--2--2--2--2-----1-----1--1--1--1--1--1-----0-----0--0--0--0--0--0--
If you need me you can find me,
On the edge of sanity and,
E|-----------------------------------------------------------------------------------------------------------
B|-----------------------------------------------------------------------------------------------------------
G|-----------------------------------------------------------------------------------------------------------
D|-----------------------------------------------------------------------------------------------------------
A|--------------------------------------------------------4-----4--4--4--4--4--4-----6-----6--6--6--6--6--6--
E|--4-----4--4--4--4--4--4-----6-----6--6--6--6--6--6--------------------------------------------------------
Lament repent for all my sins,
E|-----------------------------------------------------------------------------------------------------------
B|-----------------------------------------------------------------------------------------------------------
G|-----------------------------------------------------------------------------------------------------------
D|-----------------------------------------------------------------------------------------------------------
A|-----------------------------------------------------------------------------------------------------------
E|--4-----4--4--4--4--4--4-----2-----2--2--2--2--2--2-----1-----1--1--1--1--1--1-----0-----0--0--0--0--0--0--
And everything backfired,
E|--------------------------
B|--------------------------
G|-----------------------6--
D|--6-----6--8-----8-----6--
A|--6-----6--8-----8-----4--
E|--4-----4--6-----6--------

Chorus 1:
Can you possibly see this world the way I do, (Selfishness and bloodshed obscure the view)
E|--------------------------------------------------------------------------------------------------
B|--------------------------------------------------------------------------------------------------
G|-----------------------------8-----8-----8-----8--8--8--------------------------------------------
D|--6-----6-----6-----6--6--6--8-----8-----8-----8--8--8--3--3-----3--2--2-----2--1--1-----1--3--3--
A|--6-----6-----6-----6--6--6--6-----6-----6-----6--6--6--3--3-----3--3--3-----3--3--3-----3--4--4--
E|--4-----4-----4-----4--4--4-----------------------------------------------------------------------
Time again to see the light in sinning preacher's hollow words I do say,
It's gotta end sometime,
What a wonderful view,
E|-----------------------------------------------------------------------------------------------
B|-----------------------------------------------------------------------------------------------
G|-----------------8-----8--8-----6-----6-----6-----6--6--6--------------------------------------
D|--6-----6--6-----8-----8--8-----6-----6-----6-----6--6--6--3--3-----3--2--2-----2--1--1-----1--
A|--6-----6--6-----6-----6--6-----4-----4-----4-----4--4--4--3--3-----3--3--3-----3--3--3-----3--
E|--4-----4--4-----------------------------------------------------------------------------------

E|--------------------------------------
B|--------------------------------------
G|--6--6--6--6--6--6--6--6--8--8--8--8--
D|--6--6--6--6--6--6--6--6--8--8--8--8--
A|--4--4--4--4--4--4--4--4--6--6--6--6--
E|--------------------------------------

Pre-Verse 2 Interlude:
E|-----------------------------------------------------------------------------------------
B|-----------------------------------------------------------------------------------------
G|-----------------------------------------------------------------------------------------
D|--6--6-----6-----6-----6--6--6-----6-----6-----6--6--6-----6-----6-----6--6--6--6--6--6--
A|--6--6-----6-----6-----6--6--6-----6-----6-----6--6--6-----6-----6-----6--6--6--6--6--6--
E|--4--4-----4-----4-----4--4--4-----4-----4-----4--4--4-----4-----4-----4--4--4--4--4--4--

Verse 2: Same As Verse 1
Was it really worth the pain,
You were left out in the pouring rain,
E|-----------------------------------------------------------------------------------------------------------
B|-----------------------------------------------------------------------------------------------------------
G|-----------------------------------------------------------------------------------------------------------
D|-----------------------------------------------------------------------------------------------------------
A|--------------------------------------------------------4-----4--4--4--4--4--4-----6-----6--6--6--6--6--6--
E|--4-----4--4--4--4--4--4-----6-----6--6--6--6--6--6--------------------------------------------------------
Again my friend but this time you deserve it,
E|-----------------------------------------------------------------------------------------------------------
B|-----------------------------------------------------------------------------------------------------------
G|-----------------------------------------------------------------------------------------------------------
D|-----------------------------------------------------------------------------------------------------------
A|-----------------------------------------------------------------------------------------------------------
E|--4-----4--4--4--4--4--4-----2-----2--2--2--2--2--2-----1-----1--1--1--1--1--1-----0-----0--0--0--0--0--0--
Let it go just let it be,
Let it go and you'll be free,
E|-----------------------------------------------------------------------------------------------------------
B|-----------------------------------------------------------------------------------------------------------
G|-----------------------------------------------------------------------------------------------------------
D|-----------------------------------------------------------------------------------------------------------
A|--------------------------------------------------------4-----4--4--4--4--4--4-----6-----6--6--6--6--6--6--
E|--4-----4--4--4--4--4--4-----6-----6--6--6--6--6--6--------------------------------------------------------
Find the time to walk the line once again,
E|-----------------------------------------------------------------------------------------------------------
B|-----------------------------------------------------------------------------------------------------------
G|-----------------------------------------------------------------------------------------------------------
D|-----------------------------------------------------------------------------------------------------------
A|-----------------------------------------------------------------------------------------------------------
E|--4-----4--4--4--4--4--4-----2-----2--2--2--2--2--2-----1-----1--1--1--1--1--1-----0-----0--0--0--0--0--0--
And everything backfired,
E|--------------------------
B|--------------------------
G|-----------------------6--
D|--6-----6--8-----8-----6--
A|--6-----6--8-----8-----4--
E|--4-----4--6-----6--------

Chorus 2: Same As Chorus 1
Can you possibly see this world the way I do, (Selfishness and bloodshed obscure the view)
E|-----------------------------------------------------------------------------------------------------
B|-----------------------------------------------------------------------------------------------------
G|--------------------------------8-----8-----8-----8--8--8--------------------------------------------
D|--6-----6-----6-----6--6--6-----8-----8-----8-----8--8--8--3--3-----3--2--2-----2--1--1-----1--3--3--
A|--6-----6-----6-----6--6--6-----6-----6-----6-----6--6--6--3--3-----3--3--3-----3--3--3-----3--4--4--
E|--4-----4-----4-----4--4--4--------------------------------------------------------------------------
Time again to see the light in sinning preacher's hollow words I do say,
It's gotta end sometime,
What a wonderful view,
E|-----------------------------------------------------------------------------------------------
B|-----------------------------------------------------------------------------------------------
G|-----------------8-----8--8-----6-----6-----6-----6--6--6--------------------------------------
D|--6-----6--6-----8-----8--8-----6-----6-----6-----6--6--6--3--3-----3--2--2-----2--1--1-----1--
A|--6-----6--6-----6-----6--6-----4-----4-----4-----4--4--4--3--3-----3--3--3-----3--3--3-----3--
E|--4-----4--4-----------------------------------------------------------------------------------

E|--------------------------------------
B|--------------------------------------
G|--6--6--6--6--6--6--6--6--8--8--8--8--
D|--6--6--6--6--6--6--6--6--8--8--8--8--
A|--4--4--4--4--4--4--4--4--6--6--6--6--
E|--------------------------------------

Bridge: Let each Note Ring Out
And oh how you tried, 
And oh how your old self died,
And oh how she cried,
Over and over all the time,
And oh how you tried, 
And oh how your old self died,
And oh how she cried,
Over and over all the time,
E|-----------------------------------------------------------------------------------------------
B|-----------------------------------------------------------------------------------------------
G|-----------------------------------------------------------------------------------------------
D|--3-----2-----1-----0-----3-----2-----1-----0-----3-----2-----1-----0-----3-----2-----1-----0--
A|--3-----3-----3-----3-----3-----3-----3-----3-----3-----3-----3-----3-----3-----3-----3-----3--
E|-----------------------------------------------------------------------------------------------
And everything backfired,
E|--------------------------
B|--------------------------
G|-----------------------6--
D|--6-----6--8-----8-----6--
A|--6-----6--8-----8-----4--
E|--4-----4--6-----6--------

Chorus 3: This Is A Double Chorus.
Can you possibly see this world the way I do, (Selfishness and bloodshed obscure the view)
E|-----------------------------------------------------------------------------------------------------
B|-----------------------------------------------------------------------------------------------------
G|--------------------------------8-----8-----8-----8--8--8--------------------------------------------
D|--6-----6-----6-----6--6--6-----8-----8-----8-----8--8--8--3--3-----3--2--2-----2--1--1-----1--3--3--
A|--6-----6-----6-----6--6--6-----6-----6-----6-----6--6--6--3--3-----3--3--3-----3--3--3-----3--4--4--
E|--4-----4-----4-----4--4--4--------------------------------------------------------------------------
Time again to see the light in sinning preacher's hollow words I do say,
It's gotta end sometime,
What a wonderful view,
E|--------------------------------------------------------------------------------------------------------------
B|--------------------------------------------------------------------------------------------------------------
G|-----------------8-----8--8-----6-----6-----6-----6--6--6-----------------------------------------------------
D|--6-----6--6-----8-----8--8-----6-----6-----6-----6--6--6--3--3-----3--2--2-----2--1--1-----1--3--3--3--3--3--
A|--6-----6--6-----6-----6--6-----4-----4-----4-----4--4--4--3--3-----3--3--3-----3--3--3-----3--4--4--4--4--4--
E|--4-----4--4--------------------------------------------------------------------------------------------------
Can you possibly see this world the way I do, (Selfishness and bloodshed obscure the view)
E|-----------------------------------------------------------------------------------------------------
B|-----------------------------------------------------------------------------------------------------
G|--------------------------------8-----8-----8-----8--8--8--------------------------------------------
D|--6-----6-----6-----6--6--6-----8-----8-----8-----8--8--8--3--3-----3--2--2-----2--1--1-----1--3--3--
A|--6-----6-----6-----6--6--6-----6-----6-----6-----6--6--6--3--3-----3--3--3-----3--3--3-----3--4--4--
E|--4-----4-----4-----4--4--4--------------------------------------------------------------------------
Time again to see the light in sinning preacher's hollow words I do say,
It's gotta end sometime,
What a wonderful view,
E|-----------------------------------------------------------------------------------------------
B|-----------------------------------------------------------------------------------------------
G|-----------------8-----8--8-----6-----6-----6-----6--6--6--------------------------------------
D|--6-----6--6-----8-----8--8-----6-----6-----6-----6--6--6--3--3-----3--2--2-----2--1--1-----1--
A|--6-----6--6-----6-----6--6-----4-----4-----4-----4--4--4--3--3-----3--3--3-----3--3--3-----3--
E|--4-----4--4-----------------------------------------------------------------------------------

E|--------------------------------------
B|--------------------------------------
G|--6--6--6--6--6--6--6--6--8--8--8--8--
D|--6--6--6--6--6--6--6--6--8--8--8--8--
A|--4--4--4--4--4--4--4--4--6--6--6--6--
E|--------------------------------------
And everything backfired...
E|--------------------------
B|--------------------------
G|-----------------------6--
D|--6-----6--8-----8-----6--
A|--6-----6--8-----8-----4--
E|--4-----4--6-----6--------
tabs and chords, guitar tabs, music transcription, music technology, deep learning, music information retrieval, transcribe into tabs & chords, chordify, music renditions, songsterr, reverbnation, tabulature, bollywood chords, ultimate guitar, yousician, guitar lessons, acoustic guitar, electric guitar, guitar tuner, 911 tabs