Guitar Tabs for Remember (lead Guitar)

(/) Slide Up  (\) Slide Down  (h) Hammer On  (p) Pull Off  (b) Bend (r) Release (v) Vibrato (x) Muted

Intro/Verse 1: Clean Guitar 

It's nights like this where I wonder,
E|--------------------------------------------------------------------------------------------------
B|--------------------------------------------------------------------------------------------------
G|--4--4--4--4--4--4--4--4--4--4--4--4--4--4--4--4--4--4--4--4--4--4--4--4--4--4--4--4--4--4--4--4--
D|--4--4--4--4--4--4--4--4--4--4--4--4--4--4--4--4--4--4--4--4--4--4--4--4--4--4--4--4--4--4--4--4--
A|--2--2--2--2--2--2--2--2--2--2--2--2--2--2--2--2--0--0--0--0--0--0--0--0--0--0--0--0--0--0--0--0--
E|--------------------------------------------------------------------------------------------------
It's time like these when I'm all alone,
E|--------------------------------------------------------------------------------------------------
B|--------------------------------------------------------------------------------------------------
G|--------------------------------------------------------------------------2--2--2--2--2--2--2--2--
D|--5--5--5--5--5--5--5--5--5--5--5--5--5--5--5--5--5--5--5--5--5--5--5--5--2--2--2--2--2--2--2--2--
A|--5--5--5--5--5--5--5--5--5--5--5--5--5--5--5--5--5--5--5--5--5--5--5--5--0--0--0--0--0--0--0--0--
E|--3--3--3--3--3--3--3--3--3--3--3--3--3--3--3--3--0--0--0--0--0--0--0--0--------------------------
That I truly come to comprehend these thoughs inside my head,
E|--------------------------------------------------------------------------------------------------
B|--------------------------------------------------------------------------------------------------
G|--4--4--4--4--4--4--4--4--4--4--4--4--4--4--4--4--4--4--4--4--4--4--4--4--4--4--4--4--4--4--4--4--
D|--4--4--4--4--4--4--4--4--4--4--4--4--4--4--4--4--4--4--4--4--4--4--4--4--4--4--4--4--4--4--4--4--
A|--2--2--2--2--2--2--2--2--2--2--2--2--2--2--2--2--0--0--0--0--0--0--0--0--0--0--0--0--0--0--0--0--
E|--------------------------------------------------------------------------------------------------
It's like I'm trying to fill my lungs with air but I'm already dead,
E|-----------------------------------------------------------------------------
B|-----------------------------------------------------------------------------
G|--------------------------------------------------------------------------2--
D|--5--5--5--5--5--5--5--5--5--5--5--5--5--5--5--5--5--5--5--5--5--5--5--5--2--
A|--5--5--5--5--5--5--5--5--5--5--5--5--5--5--5--5--5--5--5--5--5--5--5--5--0--
E|--3--3--3--3--3--3--3--3--3--3--3--3--3--3--3--3--0--0--0--0--0--0--0--0-----

Chorus 1: Distorted Guitar 

And I feel so gone,
But I'm still holding on,
Was supposed to live the dream,
Now all I wanna do is scream,
I'm sorry to who I used to be,
The future just isn't what I thought it was,
E|-----------------------------------------------------------------------------------------------------
B|-----------------------------------------------------------------------------------------------------
G|--4--------------7-----7--------4--------------7-----7-----------------------------------------------
D|--4-----4--5-----7-----7--7-----4-----4--5-----7-----7--7-----5-----7-----9--7--5-----5-----7-----9--
A|--2-----4--5-----5-----5--7-----2-----4--5-----5-----5--7-----5-----7-----9--7--5-----5-----7-----9--
E|--------2--3--------------5-----------2--3--------------5-----3-----5-----7--5--3-----3-----5-----7--

Verse 3: Clean Guitar

Another year has passed,
They just never seem to last,
Anymore but it's okay,
I don't mind but I don't mind,
When I leave I'll leave all of me behind,
E|--------------------------------------------------------------------------------------
B|--------------------------------------------------------------------------------------
G|--------------------------------------------------------------------------------------
D|---0h2--2---2h4--4------0h2--2---2h4--4------0h2--2---2h4--4-----4--2--2-----5--4--4--
A|--------------------------------------------------------------------------------------
E|--------------------------------------------------------------------------------------

E|--------------------------------------------------------------------------------------
B|--------------------------------------------------------------------------------------
G|--------------------------------------------------------------------------------------
D|---0h2--2---2h4--4------0h2--2---2h4--4------0h2--2---2h4--4-----4--2--2-----5--4--4--
A|--------------------------------------------------------------------------------------
E|--------------------------------------------------------------------------------------

Chorus 2: Distorted Guitar

And I feel so gone,
But I'm still holding on,
E|--------------------------------------------------------------------------------------
B|--------------------------------------------------------------------------------------
G|--------------------------------------------------------------------------------------
D|---0h2--2---2h4--4------0h2--2---2h4--4------0h2--2---2h4--4-----4--2--2-----5--4--4--
A|--------------------------------------------------------------------------------------
E|--------------------------------------------------------------------------------------
Was supposed to live the dream,
Now all I wanna do is scream,
E|--------------------------------------------------------------------------------------
B|--------------------------------------------------------------------------------------
G|--------------------------------------------------------------------------------------
D|---0h2--2---2h4--4------0h2--2---2h4--4------0h2--2---2h4--4-----4--2--2-----5--4--4--
A|--------------------------------------------------------------------------------------
E|--------------------------------------------------------------------------------------
I'm sorry to who I used to be,
The future just isn't what I thought it was,
E|-----------------------------------------------------------------------------------
B|-----------------------------------------------------------------------------------
G|-----------------------------------------------------------------------------------
D|--5-----7-----9--7--5-----5-----7-----9-----9-----9--9--9--9--9--9--9--9--9--9--9--
A|--5-----7-----9--7--5-----5-----7-----9-----9-----9--9--9--9--9--9--9--9--9--9--9--
E|--3-----5-----7--5--3-----3-----5-----7-----7-----7--7--7--7--7--7--7--7--7--7--7--

Bridge: No Part

And the memories certainly must fade,
But our hearts as they were will remain,
In the long forgotten past we have lost,
Tearful rememberences may just be the cost,

Chorus 3: Distorted Guitar

And I feel so gone,
But I'm still holding on,
E|--------------------------------------------------------------------------------------
B|--------------------------------------------------------------------------------------
G|--------------------------------------------------------------------------------------
D|---0h2--2---2h4--4------0h2--2---2h4--4------0h2--2---2h4--4-----4--2--2-----5--4--4--
A|--------------------------------------------------------------------------------------
E|--------------------------------------------------------------------------------------
Was supposed to live the dream,
Now all I wanna do is scream,
E|--------------------------------------------------------------------------------------
B|--------------------------------------------------------------------------------------
G|--------------------------------------------------------------------------------------
D|---0h2--2---2h4--4------0h2--2---2h4--4------0h2--2---2h4--4-----4--2--2-----5--4--4--
A|--------------------------------------------------------------------------------------
E|--------------------------------------------------------------------------------------
Was supposed to live the dream,
Now all I wanna do is scream,
E|--------------------------------------------------------------------------------------
B|--------------------------------------------------------------------------------------
G|--------------------------------------------------------------------------------------
D|---0h2--2---2h4--4------0h2--2---2h4--4------0h2--2---2h4--4-----4--2--2-----5--4--4--
A|--------------------------------------------------------------------------------------
E|--------------------------------------------------------------------------------------
One day we'll all close our eyes, (One last time,)
Maybe then we can look beyond the lies, (See through me,)
E|--------------------------------------------------------------------------------------
B|--------------------------------------------------------------------------------------
G|--------------------------------------------------------------------------------------
D|---0h2--2---2h4--4------0h2--2---2h4--4------0h2--2---2h4--4-----4--2--2-----5--4--4--
A|--------------------------------------------------------------------------------------
E|--------------------------------------------------------------------------------------
See our lives the good and the bad, (As they are,)
And understand we were the best thing we ever had,
E|-----------------------------------------------------------------------------------------------
B|-----------------------------------------------------------------------------------------------
G|-----------------------------------------------------------------------------------------------
D|---0h2--2---2h4--4------0h2--2---2h4--4------0h2--2---2h4--4-----4--2--2-----5--4--4-----2--0--
A|-----------------------------------------------------------------------------------------------
E|-----------------------------------------------------------------------------------------------

Outro: Let Last Note From Chorus 3 Ring Out, Optional: End On Clean B Power Chord (2A, 4D, 4G)

I'm sorry to who I used to be,
The future just isn't what I thought it was...


tabs and chords, guitar tabs, music transcription, music technology, deep learning, music information retrieval, transcribe into tabs & chords, chordify, music renditions, songsterr, reverbnation, tabulature, bollywood chords, ultimate guitar, yousician, guitar lessons, acoustic guitar, electric guitar, guitar tuner, 911 tabs