Guitar Tabs for The Shore

(/) Slide Up  (\) Slide Down  (h) Hammer On  (p) Pull Off  (b) Bend (r) Release (v) Vibrato (x) Muted

Tabs for Song : The Shore.
Intro & verse 2 and break down/solo/outro
D|-----------------------------------------------------------------------------------------------------------------------------2v
A|-----------------------------------------------------------------------------------------------------------------------------
F|-----------------------------------------------------------------------------------------------------------------------------
C|-----------------------------------------------------------------------------------------------------------------------------
G|--4--0--2--3--4--------------4--4--4--4--4--4--4--4--0--0--0--0--0--0--0--0--2--2--2--2--2--2--2--2--3--3--3--3--4--4--4--4--
D|-----------------------------------------------------------------------------------------------------------------------------

Ive been traveling this ocean for years
D|--------------------------------------------------------------------------
A|--------------------------------------------------------------------------
F|--------------------------------------------------------------------------
C|--------------------------------------------------------------------------
G|--4--4--4--4--4--4--4--4--0--0--0--0--0--0--0--0--4--4--4--4--4--4--4--4--
D|--------------------------------------------------------------------------
You Harbour me

D|--------------
A|--------------
F|--------------
C|--------------
G|--4--4--0--0--
D|--------------

D|-----------------------------------------------------------------------------------------------------
A|-----------------------------------------------------------------------------------------------------
F|-----------------------------------------------------------------------------------------------------
C|-----------------------------------------------------------------------------------------------------
G|--2--2--2--2--2--2--2--2--0--0--0--0--0--0--0--0--2--2--2--2--2--2--2--2--0--0--0--0--0--0--0--0--2--
D|-----------------------------------------------------------------------------------------------------

D|--
A|--
F|--
C|--
G|--
D|--

D|--
A|--
F|--
C|--
G|--
D|--

Paste any tab in acousterr's tab maker and we'll play it !!!
Now supports capo and sound effects for vibrato/pull-off/hammer/bends/mutes etc !!! Checkout help section
tabs and chords, guitar tabs, music transcription, music technology, deep learning, music information retrieval, transcribe into tabs & chords, chordify, music renditions, songsterr, reverbnation, tabulature, bollywood chords, ultimate guitar, yousician, guitar lessons, acoustic guitar, electric guitar, guitar tuner, 911 tabs