Guitar Tabs for The Riders Of Rohan

(/) Slide Up  (\) Slide Down  (h) Hammer On  (p) Pull Off  (b) Bend (r) Release (v) Vibrato (x) Muted

Tabs for Song : 
BPM : 200

Song lyrics here 


Song lyrics here 
E|-----------------3-----2-----5--------------------12)------------------------------------------------------------------------------------------0-----2-----5--------------
B|-----12)---1-----------------3------8h10-12-------------------------------------1-----0-----1-----3--------------------------------1-----0-----1-----3-----------3-----3--
G|-----------------0--------2--------------9--------------------------2--2--2-----------0-----0-----0-----2--------0--2-----2--2--2--------0-----0-----2--------2-----------
D|--2-----------2--------0--------------------------------------------------2-----------0-----2-----4--------4-----------2--------2--------0-----2-----0--------------------
A|--2--------3--------------------------------------------------0-----------------------2-----3-----5-----------12-------0-----------------2-----3--------------------(7)---
E|--0--------------------------------------0--------------------------------------------------------------------------------------------------------------------------------

E|-----------5--5--5-----7-----8--8--8-----10----5--------------7-----------------3-----3-----0-----------------5--5--5-----8-----7-----12----14----10----------------------
B|-----5--5--5-----------8-----------------10----3--------------0-----8-----7-----------1-----------------------------5-----------8-----------13-------------8--------------
G|--2--------2-----------7-----9-----------------2--------------0-----9-----------------------0-----------------------------------7-----12----11----------7-----7-----------
D|--2--------------------------------------0--------------------------------5-----------------2-----------------------------------9-----10----12-------9--------------------
A|--0--------------------------10----------5--------------------7-----------------------3-----------------12)---------------------------------------------------------------
E|-----------------------7-----8--------------------------------0-----------------------------------------------------------------------------------------------------------

E|-----5--5--5--8-----7-----12----14----17----------7-----7------------------7h8-----------------10h12----12----------8-----------12-12)---------------0--------------------
B|-----------5--------8-----8-----10----15-------------7--8--8-----------8--------13----10----10----------8--------8--------8--------12)12)---------0---------8h10----------
G|--------------------7-----9-----11-------------9--------9--------11-7-----------12-------11-------------9--------------9-----9-----12)12)------0--------11----------------
D|--------------------------------0-----------12)---------9--------9--------------0-----12-------------------10-9-----------------------------4-----------------------------
A|--7--------------------------------------12)------------7-----7--------------------12)---------------------------------------------------7--------------------------------
E|--5-----------------7-----8-----------------------------0-----------------------------------------------8--------------------------(0)------------------------------------

E|--7-----------------------------------0-----7-----10----------------------------------------12-12-12----------8--------------------------------12-12-------12-12----12----
B|-----8--------8--------------------------8-----8-----10-------10----------------------10-10----------------8-----8--------8-----------------8--------0-----------0--------
G|--------9--------9--------------0-----------------------11-------11----------------11-------------------9-----------9--------9-----------9-----------12-11-------9--------
D|-----------9--------9--------------9-----------------------12-------12----------12-------------------10----------------10-------10----10----------------------------------
A|-----------------------7-----7-----------------------------------------12----12----------------------------------------------------10-------------------------------------
E|--0-----------------------0-----------------------10----------------------10----------------------8-----------------------------------------------0-----------8-----------

E|--12----12)12)---------0-----------------------0-----------------------0--2--------5--4-----0-----------------------
B|-----0--------12)---7--------------------0--------1--0--------------2-----------3-----------0--2--------0-----------
G|-----11----------12)------------------2-----2-----0-----2--------2-----------2-----------1-----------2--------1-----
D|--0-----------------------12)------2--------2-----------4--2--2-----------0-----------2-----------2--------2-----2--
A|--------------------------------0--2-----------------------------------------------------------0-----------------2--
E|-----------(0)---------------(7)---0--------------------------------------------------------------------0--------0--

tabs and chords, guitar tabs, music transcription, music technology, deep learning, music information retrieval, transcribe into tabs & chords, chordify, music renditions, songsterr, reverbnation, tabulature, bollywood chords, ultimate guitar, yousician, guitar lessons, acoustic guitar, electric guitar, guitar tuner, 911 tabs