Guitar Tabs for The Night King

(/) Slide Up  (\) Slide Down  (h) Hammer On  (p) Pull Off  (b) Bend (r) Release (v) Vibrato (x) Muted

Tabs for Song : 
BPM : 100

Song lyrics here 

E|--5--------5--8--8--5--------5--------5--8--8--5--------12----------8--8--10----8-----5--8--8--5-----
B|-----------------------------------------------------------------10----------------------------------
G|-----------------------------------------------------------------------------------------------------
D|-----------------------------------------------------------------------------------------------------
A|-----------------------------------------------------------------------------------------------------
E|-----------------------------------------------------------------------------------------------------

E|-----12-------8--8--10----8-----------5--5-----
B|-----------10----------------------6--------5--
G|-----------------------------------------------
D|-----------------------------------------------
A|-----------------------------------------------
E|-----------------------------------------------

Song lyrics here 
E|-----5--------5--8-----8--8-----8--7-------------8--8-----8--5---------5--5-----5-----------------------------
B|-----------------------------------------------------------------------------------6--------6--6-----6--5-----
G|--------------------------------------------------------------------------------------------------------------
D|--------------------------------------------------------------------------------------------------------------
A|--------------------------------------------------------------------------------------------------------------
E|--------------------------------------------------------------------------------------------------------------

E|--------8--8-----8--7--------8--8-----8--5--------5--5-----5----------------------------
B|--------------------------------------------------------------6--------6--6------6--5--
G|-----------------------------------------------------------------------------------------
D|-----------------------------------------------------------------------------------------
A|--------------------------------------------------------------------------------------
E|-----------------------------------------------------------------------------------

E|--------0--------------------------------------------------------------------------------------------------
B|--3-----------------1--1--------------------1--1--------------------1--1--------------------1--1--0--------
G|-----------------2--------2-----2--------2--------2-----2--------2--------2-----2--------2--------------2--
D|-----------------------------------------------------------------------------------------------------------
A|-----------------------------------------------------------------------------------------------------------
E|-----------------------------------------------------------------------------------------------------------

E|--------------------------------------------------------------------------------------------------0--5--5--
B|-----------1--1--------------------1--1--0-----------------1--1--------------------1--1--0-----------------
G|--------2--------2-----2--------2--------------2--------2--------2-----2--------2--------------2-----------
D|-----------------------------------------------------------------------------------------------------------
A|-----------------------------------------------------------------------------------------------------------
E|-----------------------------------------------------------------------------------------------------------

Use manual mode to free up cursor. Paste any tab in acousterr tab maker and we'll play it !!!
E|------------------------0--5--5--------------------------12-0--------------0-----------10------------------
B|------1--1--0-----------------------------1--1--0--------------10-10----------10-10------------------------
G|---2-----------------2-----------------2-----------------------------------------------------------------0-
D|------------------------------------------------------------------------------------------10-10-9----7-----
A|-----------------------------------------------------------------------------------------------------------
E|-----------------------------------------------------------------------------------------------------------

E|------------------8-----0--5-
B|-----------------------------
G|---------5--5--4-----7-------
D|------7----------------------
A|-----------------------------
E|-----------------------------

E|-----0--5--5-----10----------------------------------5--8--8--7--5--3-----5--8--8--5-----5--8--8--7--5--3--
B|-----------------------------------------------------------------------------------------------------------
G|-----------------------------------------5--5--3-----------------------------------------------------------
D|--------------------10-10-8--7--5-----7--------------------------------------------------------------------
A|-----------------------------------------------------------------------------------------------------------
E|-----------------------------------------------------------------------------------------------------------

E|-----5--10-10----------8--8--6--5--3-----5--8--8--5-----5--8--8--7--------5--8--8--5-----------------------
B|--------------10----10-------------------------------------------------------------------------------------
G|--------------------------------------------------------------------------------------------------5--5--2--
D|-----------------------------------------------------------------------------------------7-----7-----------
A|-----------------------------------------------------------------------------------------------------------
E|-----------------------------------------------------------------------------------------------------------

E|--13----13-13----13-12----------13----13-13----13-10----------10----10-10----10-------------------------------
B|--------------------------------------------------------------------------------11----------11----11-11----10-
G|--------------------------------------------------------------------------------------------------------------
D|--------------------------------------------------------------------------------------------------------------
A|--------------------------------------------------------------------------------------------------------------
E|--------------------------------------------------------------------------------------------------------------

E|--------------------------------------------------------------------------13-13-13-13-13-13-13-15-
B|-----------8-----------------8-----------------8-----------------8--------------------------------
G|--10----------------10----------------10----------------10----------------------------------------
D|--------------------------------------------------------------------------------------------------
A|--------------------------------------------------------------------------------------------------
E|--------------------------------------------------------------------------------------------------

E|--13-13-13-13-13-13-13-15-------------------------------------------------------------------------------
B|--------------------------------16-16-16-16-16-16-16-15-------1--4--4--------------------4--4-----------
G|-----------------------------------------------------------------------5-----5--------5--------5-----5--
D|--------------------------------------------------------------------------------------------------------
A|--------------------------------------------------------------------------------------------------------
E|--------------------------------------------------------------------------------------------------------

E|--------------------------------------------------------------------------------------------------
B|-----4--4--------------------4--4--------------------4--4--3-----1--------1--1--4--4--------------
G|--5--------5-----5--------5--------5-----5--------5-----------------------------------5-----5-----
D|--------------------------------------------------------------------------------------------------
A|--------------------------------------------------------------------------------------------------
E|--------------------------------------------------------------------------------------------------

E|-----------------------------------------------------------------------3--------4--6-----8-----13-13-10----8--
B|--------4--4--3-----1--------1--1--------1--1--------1--1-----1--4--3-----------------------8-----------------
G|--5--5--------------------------------------------------------------------------------------------------------
D|--------------------------------------------------------------------------------------------------------------
A|--------------------------------------------------------------------------------------------------------------
E|--------------------------------------------------------------------------------------------------------------

E|--------------------6-----8-----8--15-15----------------------------------------------------
B|-----8--------9--------------------------15-------------------------------------11-13-------
G|--------------------------------------------------------------12----------13----------------
D|--------------------------------------------------13-13----12-------------------------------
A|-----------------------------------------------15-------------------------------------------
E|--------------------------------------------------------------------------------------------

E|-----------------------------------------------------------------------------------------------------
B|--4--4-----4--4--3--------4--4-----4--4--------------------------------------------------------------
G|-----------------------------------------5--------5--5-----5--5--------------------------------------
D|-----------------------------------------------------------------6--------6--6-----6--6--5-----3--1--
A|-----------------------------------------------------------------------------------------------------
E|-----------------------------------------------------------------------------------------------------

E|-----------------------------------------3--4--3-----1--------3--4--3--------4--6--4-----------------------------
B|--4--4--4--4--4--------------------6--------------------------------------------------4--------4--4-----4--4--3--
G|-----------------5--------5--5-----------------------------------------------------------5-----------------------
D|-----------------------------------------------------------------------------------------------------------------
A|-----------------------------------------------------------------------------------------------------------------
E|-----------------------------------------------------------------------------------------------------------------

E|--4--4-----4--4--3--------3--3-----3--3--------------------------2--------2--2--2-----2--2--3--
B|-----------------------------------------4--------4--4-----4--4--------------------------------
G|-----------------------------------------------------------------------------------------------
D|-----------------------------------------------------------------------------------------------
A|-----------------------------------------------------------------------------------------------
E|-----------------------------------------------------------------------------------------------

E|--11-11----11-11-10-------11-11----11-11-8--------8--8-----8--8--6--------6--6-----6--6--7--------11-11----11-11-10-
B|--------------------------------------------------------------------------------------------------------------------
G|--------------------------------------------------------------------------------------------------------------------
D|--------------------------------------------------------------------------------------------------------------------
A|--------------------------------------------------------------------------------------------------------------------
E|--------------------------------------------------------------------------------------------------------------------

E|--11-11----11-11-8--------8--8-----8--8--6--------6--6--6--6--6--6--6--6--7--------11-11-11-11-11-11-11-10-
B|-----------------------------------------------------------------------------------------------------------
G|-----------------------------------------------------------------------------------------------------------
D|-----------------------------------------------------------------------------------------------------------
A|-----------------------------------------------------------------------------------------------------------
E|-----------------------------------------------------------------------------------------------------------

E|--11-11-11-11-11-11-11-11-8--------8--8--8--8--8--8--8--6--------6--6--6--6--6--6--6--6--7-----
B|-----------------------------------------------------------------------------------------------
G|-----------------------------------------------------------------------------------------------
D|-----------------------------------------------------------------------------------------------
A|-----------------------------------------------------------------------------------------------
E|-----------------------------------------------------------------------------------------------

E|-----11-11-11-11-11-11-11-10-------11-11-11-11-11-11-11-11-8--------8--8--8--8--8--8--8--6--
B|--------------------------------------------------------------------------------------------
G|--------------------------------------------------------------------------------------------
D|--------------------------------------------------------------------------------------------
A|--------------------------------------------------------------------------------------------
E|--------------------------------------------------------------------------------------------

E|--6--6--6--6--6--6--6--6--7--------11-11-11-11-11-11-11-10-------10-10-11-10-10-8--8--8--8--8--8--8--8--8--8--
B|--------------------------------------------------------------------------------------------------------------
G|--------------------------------------------------------------------------------------------------------------
D|--------------------------------------------------------------------------------------------------------------
A|--------------------------------------------------------------------------------------------------------------
E|--------------------------------------------------------------------------------------------------------------

E|--8--8--8--6-----6--8--8--8--8--8--8--8--8--6--6--6--6--6--8--6--6--3--3--6--8--8--8--6--6--3--3--3--3--3--3--3--
B|--------------8--------------------------------------------------------------------------------------------------
G|-----------------------------------------------------------------------------------------------------------------
D|-----------------------------------------------------------------------------------------------------------------
A|-----------------------------------------------------------------------------------------------------------------
E|-----------------------------------------------------------------------------------------------------------------

E|--------------------------------------------------------------------------------------8--------8--11-11-8-----8--
B|--1--4--4--------------------4--4--------------------4--4--------------------4--4--3-----------------------------
G|-----------5-----5--------5--------5-----5--------5--------5-----5--------5--------------------------------------
D|-----------------------------------------------------------------------------------------------------------------
A|-----------------------------------------------------------------------------------------------------------------
E|-----------------------------------------------------------------------------------------------------------------

E|--8--11-11-10----8--------8--11-11-8-----8--------8--11-11-10-------11-11-11-11-11-11-10-10-10-10-10-10-
B|--------------------------------------------------------------------------------------------------------
G|--------------------------------------------------------------------------------------------------------
D|--------------------------------------------------------------------------------------------------------
A|--------------------------------------------------------------------------------------------------------
E|--------------------------------------------------------------------------------------------------------

E|--11-11-11-11-11-11-8--8--8--8--8--8--11-11-11-11-11-11-10-10-10-10-10-10-11-11-11-11-11-11-8--8--8--8--8--8--
B|--------------------------------------------------------------------------------------------------------------
G|--------------------------------------------------------------------------------------------------------------
D|--------------------------------------------------------------------------------------------------------------
A|--------------------------------------------------------------------------------------------------------------
E|--------------------------------------------------------------------------------------------------------------

E|--13-13-13-13-13-13-11-11-11-11-11-11-13-13-13-13-13-13-11-11-11-11-11-8-----------8--------3--8--------3--8--
B|--------------------------------------------------------------------------------8--------6-----------6--------
G|-----------------------------------------------------------------------------10-------5-----------5-----------
D|--------------------------------------------------------------------------10----------------------------------
A|--------------------------------------------------------------------------------------------------------------
E|--------------------------------------------------------------------------------------------------------------

E|--------3--8--------3--8---
B|-----6-----------6---------
G|--5-----------5------------
D|---------------------------
A|---------------------------
E|--------------------------
tabs and chords, guitar tabs, music transcription, music technology, deep learning, music information retrieval, transcribe into tabs & chords, chordify, music renditions, songsterr, reverbnation, tabulature, bollywood chords, ultimate guitar, yousician, guitar lessons, acoustic guitar, electric guitar, guitar tuner, 911 tabs