Guitar Tabs for King

                                                 BPM:125
                                                 (200)
E|--0--0--0--0--------------
B|--------------0--0--0--0--
G|--------------------------
D|--------------------------
A|--------------------------
E|--------------------------

E|--------------------------------------------------------------------------------------------------
B|--------0--------0--------------0--------0--------------------------------------------------------
G|-----------0-----------------------0-----------------------0-----------------------0-------------- 
D|-----2-----------------------2--------------------------4--------4--------------4--------4--------
A|--3-----------------------3--------------------------2--------------2--0-----2--------------2--0--
E|--------------------------------------------------3-----------------------3-----------------------

E|--------------------------------------------------------------------------------------------------
B|--------0--------0--------------0--------0--------------------------------------------------------
G|-----------0-----------------------0-----------------------0-----------------------0--------------
D|-----2-----------------------2--------------------------4--------4--------------4--------4--------
A|--3-----------------------3--------------------------2--------------2--0-----2--------------2--0--
E|--------------------------------------------------3-----------------------3-----------------------

E|--------------------------------------------------------------------------------------------------
B|--------0--------0--------------0--------0--------------------------------------------------------
G|-----------0-----------------------0-----------------------0-----------------------0-------------- 
D|-----2-----------------------2--------------------------4--------4--------------4--------4--------
A|--3-----------------------3--------------------------2--------------2--0-----2--------------2--0--
E|--------------------------------------------------3-----------------------3-----------------------

E|--------------------------------------------------------------------------------------------------
B|--------0--------0--------------0--------0--------------------------------------------------------
G|-----------0-----------------------0-----------------------0-----------------------0-------------- 
D|-----2-----------------------2--------------------------4--------4--------------4--------4--------
A|--3-----------------------3--------------------------2--------------2--0-----2--------------2--0--
E|--------------------------------------------------3-----------------------3-----------------------
tabs and chords, guitar tabs, music transcription, music technology, deep learning, music information retrieval, transcribe into tabs & chords, chordify, music renditions, songsterr, reverbnation, tabulature, bollywood chords, ultimate guitar, yousician, guitar lessons, acoustic guitar, electric guitar, guitar tuner, 911 tabs