The Man Who Cried Wolf - Orpheus Blade - Guitar Tabs

Tuning: DADGBE / Drop D

BPM : 120

E|--------------------------------------------------------
B|--------------------------------------------------------
G|--------------------------------------------------------
D|-----------------------------------------------7--7--7--
A|-----------------------------------------------7--7--7--
D|-----7--7--7-----7--7--7-----7--7--7-----------7--7--7--

E|-----------------------------------------------------------------------------------------------------
B|-----------------------------------------------------------------------------------------------------
G|-----------------------------------------------------------------------------------------------------
D|-----------------------------------------------------------------------------------------------------
A|-----------------------------------------------------------------------------------------------------
D|-----7--7--7--7--7--7--7--7--7--7--7--7--7--7--7--7--8--8--8--8--8--8--8--8--8--8--8--8--8--8--8--8--

E|-----------------------------------------------------------------------------------------------------
B|-----------------------------------------------------------------------------------------------------
G|-----------------------------------------------------------------------------------------------------
D|-----------------------------------------------------------------------------------------------------
A|-----------------------------------------------------------------------------------------------------
D|-----5--5--5--5--5--5--5--5--5--5--5--5--5--5--5--5--3--3--3--3--3--3--3--3--8--8--8--8--8--8--8--8--

E|-----------------------------------------------------------------------------
B|-----------------------------------------------------------------------------
G|-----------------------------------------------------------------------------
D|-----------------------------------------------------------------------------
A|-----------------------------------------------------------------------------
D|-----10-10-10-10-10-10-10-10-10-10-10-10-10-10-10-10-11-11-11-11-11-11-11-11-

E|-----------------------------------------------------------------------------
B|-----------------------------------------------------------------------------
G|-----------------------------------------------------------------------------
D|-----------------------------------------------------------------------------
A|-----------------------------------------------------------------------------
D|-----8--8--8--8--8--8--8--8--8--8--8--8--8--8--8--8--8--8--8--8--8--8--8--8--

E|--------------5-----------------------------------------------------5--------------------------------------
B|-----5-----------5--6-----5-----6--5--3--------------6-----5-----------5--6-----5-----6--5--3-----------6--
G|-----------------------------------------------3--------------------------------------------------3--------
D|-----------------------------------------------------------------------------------------------------------
A|-----------------------------------------------------------------------------------------------------------
D|-----------------------------------------------------------------------------------------------------------

E|--------------------------------------------------------------------------------------
B|--------------------------------------------------------------------------------------
G|--------------------------------------------------------------------------------------
D|--------------------------------------------------------------------------------------
A|--------------------------------------------------------------------------------------
D|--4--4--4-----4-----4-----4--4--4-----4-----4--------4-----4-----5-----5-----2-----2--

E|--------------------------------------------------
B|--------------------------------------------------
G|--------------------------------------------------
D|--------------------------------------------------
A|--------------------------------------------------
D|--3--3--3--3--3--3--3--3--2--2--2--2--2--2--2--2--

E|--------------------------------------------------------------------------------------
B|--------------------------------------------------------------------------------------
G|--------------------------------------------------------------------------------------
D|--------------------------------------------------------------------------------------
A|--------------------------------------------------------------------------------------
D|--4--4--4-----4-----4-----4--4--4-----4-----4--------4-----4-----5-----5-----2-----2--

E|--------------------------------------------------
B|--------------------------------------------------
G|--------------------------------------------------
D|--------------------------------------------------
A|--------------------------------------------------
D|--3--3--3--3--3--3--3--3--8--8--8--8--8--8--8--8--

E|--------------------------------------------------------------------
B|--7--------7--------7--------7--------6--------6-----9-----9-----7--
G|--------------------------------------------------------------------
D|--------------------------------------------------------------------
A|--------------------------------------------------------------------
D|--------------------------------------------------------------------



Use manual mode to free up cursor. Paste any tab in acousterr tab maker and we'll play it !!!

About The Man Who Cried Wolf (film) : The Man Who Cried Wolf is directed by Lewis R. Foster to a screenplay by Charles Grayson from Arthur Rohlsfel's story Too Clever to Live . The plot concerns an actor preparing for a real murder by confessing to police to murders he didn't commit .

tabs and chords, guitar tabs, music transcription, music technology, deep learning, music information retrieval, transcribe into tabs & chords, chordify, music renditions, songsterr, reverbnation, tabulature, bollywood chords, ultimate guitar, yousician, guitar lessons, acoustic guitar, electric guitar, guitar tuner, 911 tabs