Guitar Tabs for Nirvana - The Man Who Sold The World

Nirvana - The Man Who Sold The World

Intro

E|--------------------------
B|--------------------------
G|--------------------------  6x
D|--6--6--6--4---6b7--6--4--
A|--------------------------
E|--------------------------

E|-----
B|-----
G|-----
D|--6--
A|-----
E|-----

1st Verse

                      G#
  We passed upon the stairs
E|--------------------4--
B|--------------------4--
G|--------------------5--
D|--------------------6--
A|--------------------6--
E|--------------------4--

                        C#m
we spoke of was and when
E|-----------------------4--
B|-----------------------5--
G|-----------------------6--
D|-----------------------6--
A|-----------------------4--
E|--------------------------

                   G#
Although I wasn't there
E|-----------------4--
B|-----------------4--
G|-----------------5--
D|-----------------6--
A|-----------------6--
E|-----------------4--

                         E
He said I was his friend
E|-----------------------0--
B|-----------------------0--
G|-----------------------1--
D|-----------------------2--
A|-----------------------2--
E|-----------------------0--

                      B
Which came as some surprise
E|--------------------2--
B|--------------------4--
G|--------------------4--
D|--------------------4--
A|--------------------2--
E|-----------------------

                   G#
  I spoke into his eyes
E|-----------------4--
B|-----------------4--
G|-----------------5--
D|-----------------6--
A|-----------------6--
E|-----------------4--

                     C#m
I thought you died alone, a long long time ago
E|--------------------4-----------------------
B|--------------------5-----------------------
G|--------------------6-----------------------
D|--------------------6-----------------------
A|--------------------4-----------------------
E|--------------------------------------------

Chorus

                                                   Oh no,               not me
E|----------------------------------------------------------------------------
B|----------------------------------------------------------------------------
G|----------------1--2--4------------------1--2--4-----------------1--2--4----  
D|-------1--2--4------------------1--2--4-----------------1--2--4-------------
A|-2--4---------------------2--4--------------------2--4----------------------
E|----------------------------------------------------------------------------

                                        C
                                    We never lost control
E|--------------------------------------0-----------------
B|--------------------------------------1-----------------
G|--------------------------------------0-----------------
D|-------------------1--2---------------2-----------------
A|----------0--2--4---------------------3-----------------
E|-0--2--4------------------------------------------------


                 You're face
E|--------------------------------------------------
B|--------------------------------------------------
G|--------------------------------------------------
D|-------------------1--2---------------------------
A|----------0--2--4---------------------------------
E|-0--2--4------------------------------------------

                   To face
E|--------------------------------------------------
B|--------------------------------------------------
G|----------------1--2--4---------------------------
D|-------1--2--4------------------------------------
A|-2--4---------------------------------------------
E|--------------------------------------------------

                                  C
                  With the man who sold the world
E|--------------------------------0--------------
B|--------------------------------1--------------
G|--------------------------------0--------------
D|-------------------1--2---------2--------------
A|----------0--2--4---------------3--------------
E|-0--2--4---------------------------------------

E|--------------------------
B|--------------------------
G|--------------------------  6x
D|--6--6--6--4---6b7--6--4--
A|--------------------------
E|--------------------------

E|-----
B|-----
G|-----
D|--6--
A|-----
E|-----


2nd Verse

                         G#
I laughed and shook his hand
E|-----------------------4--
B|-----------------------4--
G|-----------------------5--
D|-----------------------6--
A|-----------------------6--
E|-----------------------4--

                        C#m
And made my way back home
E|-----------------------4--
B|-----------------------5--
G|-----------------------6--
D|-----------------------6--
A|-----------------------4--
E|--------------------------

                         G#
I searched from form and land
E|-----------------------4--
B|-----------------------4--
G|-----------------------5--
D|-----------------------6--
A|-----------------------6--
E|-----------------------4--

                            E
for years and years I roamed
E|--------------------------0--
B|--------------------------0--
G|--------------------------1--
D|--------------------------2--
A|--------------------------2--
E|--------------------------0--

                      B
I gazed the gazeless stare
E|--------------------2--
B|--------------------4--
G|--------------------4--
D|--------------------4--
A|--------------------2--
E|-----------------------

                      G#
At all the millions hills
E|--------------------4--
B|--------------------4--
G|--------------------5--
D|--------------------6--
A|--------------------6--
E|--------------------4--

                     C#m
   I must have died alone, a long long time ago
E|--------------------4--------------------------
B|--------------------5--------------------------
G|--------------------6--------------------------
D|--------------------6--------------------------
A|--------------------4--------------------------
E|-----------------------------------------------

2nd Chorus

                                                    Who knows,          not me
E|----------------------------------------------------------------------------
B|----------------------------------------------------------------------------
G|----------------1--2--4------------------1--2--4-----------------1--2--4----  
D|-------1--2--4------------------1--2--4-----------------1--2--4-------------
A|-2--4---------------------2--4--------------------2--4----------------------
E|----------------------------------------------------------------------------

                                        C
                                     I never lost control
E|--------------------------------------0-----------------
B|--------------------------------------1-----------------
G|--------------------------------------0-----------------
D|-------------------1--2---------------2-----------------
A|----------0--2--4---------------------3-----------------
E|-0--2--4------------------------------------------------


                 You're face
E|--------------------------------------------------
B|--------------------------------------------------
G|--------------------------------------------------
D|-------------------1--2---------------------------
A|----------0--2--4---------------------------------
E|-0--2--4------------------------------------------

                   To face
E|--------------------------------------------------
B|--------------------------------------------------
G|----------------1--2--4---------------------------
D|-------1--2--4------------------------------------
A|-2--4---------------------------------------------
E|--------------------------------------------------

                                  C
                  With the man who sold the world
E|--------------------------------0--------------
B|--------------------------------1--------------
G|--------------------------------0--------------
D|-------------------1--2---------2--------------
A|----------0--2--4---------------3--------------
E|-0--2--4---------------------------------------

E|--------------------------
B|--------------------------
G|--------------------------  4x
D|--6--6--6--4---6b7--6--4--
A|--------------------------
E|--------------------------

3rd Chorus

                                                    Who knows,          not me
E|----------------------------------------------------------------------------
B|----------------------------------------------------------------------------
G|----------------1--2--4------------------1--2--4-----------------1--2--4----  
D|-------1--2--4------------------1--2--4-----------------1--2--4-------------
A|-2--4---------------------2--4--------------------2--4----------------------
E|----------------------------------------------------------------------------

                                        C
                                    We never lost control
E|--------------------------------------0-----------------
B|--------------------------------------1-----------------
G|--------------------------------------0-----------------
D|-------------------1--2---------------2-----------------
A|----------0--2--4---------------------3-----------------
E|-0--2--4------------------------------------------------


                 You're face
E|--------------------------------------------------
B|--------------------------------------------------
G|--------------------------------------------------
D|-------------------1--2---------------------------
A|----------0--2--4---------------------------------
E|-0--2--4------------------------------------------

                   To face
E|--------------------------------------------------
B|--------------------------------------------------
G|----------------1--2--4---------------------------
D|-------1--2--4------------------------------------
A|-2--4---------------------------------------------
E|--------------------------------------------------

                                  C
                  With the man who sold the world
E|--------------------------------0--------------
B|--------------------------------1--------------
G|--------------------------------0--------------
D|-------------------1--2---------2--------------
A|----------0--2--4---------------3--------------
E|-0--2--4---------------------------------------

E|--------------------------
B|--------------------------
G|--------------------------  8x
D|--6--6--6--4---6b7--6--4--
A|--------------------------
E|--------------------------

Guitar Solo

E|--------------------------------------------------------------
B|--------------------------------------------------------------
G|--6---6/8-----------------------------------------------------
D|--------------6--6--6--4---6b7--6--4--6--6--6--4---6b7--6--4--
A|--------------------------------------------------------------
E|--------------------------------------------------------------

E|-----------------------------------------------------------------------------------------------
B|-----------------------------------------------------------------------------------------------
G|---1/9--9--9-----9-----9--9-----9--9--8---8\6--6-----6--6--6-----6-----6--6---6/8--8--8--8--8--
D|-----------------------------------------------------------------------------------------------
A|-----------------------------------------------------------------------------------------------
E|-----------------------------------------------------------------------------------------------

E|-----------------------------------------------------------------------------------------------
B|-----------------------------------------------------------------------------------------------
G|---------------------------------------1/9-----9-----9--9-----9--9-----8---8\6-----6--6--6--6--
D|--6--6--6--4---6b7--6--4--6--6--6--4-----------------------------------------------------------
A|-----------------------------------------------------------------------------------------------
E|-----------------------------------------------------------------------------------------------

E|-----------------------------------------------------------------------------------------------------
B|-----------------------------------------------------------------------------------------------------
G|--6-----6------6/8-----8-----8--8-----8--8-----------------------------------------------------------
D|--------------------------------------------------6--6--6--4---6b7--6--4--6--6--6--4---6b7--6--4--6--
A|-----------------------------------------------------------------------------------------------------
E|-----------------------------------------------------------------------------------------------------

tabs and chords, guitar tabs, music transcription, music technology, deep learning, music information retrieval, transcribe into tabs & chords, chordify, music renditions, songsterr, reverbnation, tabulature, bollywood chords, ultimate guitar, yousician, guitar lessons, acoustic guitar, electric guitar, guitar tuner, 911 tabs