Guitar Tabs for The Lonely Shephard - Kill Bill

The lonely shephard - Kill Bill Guitar Tabs

Key of D - minor Scale

Intro 
E|--------------3-----------
B|--3-----3--5-----6--5--6--
G|-----2--------------------
D|--------------------------
A|--------------------------
E|--------------------------

E|--------------3-----------
B|--3-----3--5-----6--5--6--
G|-----2--------------------
D|--------------------------
A|--------------------------
E|--------------------------


E|-----------------------10-8--10-------8--6--8-----------------
B|--------------------10----------------------------8---8/10----
G|--7--7--9--9--10-10-------------------------------------------
D|--------------------------------------------------------------
A|--------------------------------------------------------------
E|--------------------------------------------------------------

E|-----------------------10-8--10-------8--6--8--------------
B|--------------------10----------------------------8---8/10-
G|--7--7--9--9--10-10----------------------------------------
D|-----------------------------------------------------------
A|-----------------------------------------------------------
E|-----------------------------------------------------------


E|--------------------10-8--6--6-----
B|---8/10-8--------------------------
G|-----------10-10-------------------
D|-----------------------------------
A|-----------------------------------
E|-----------------------------------

E|-----------------8--6--5--5-----
B|--8-----------------------------
G|-----10-9--9--------------------
D|--------------------------------
A|--------------------------------
E|--------------------------------

E|--------------------13-12-10-10----
B|---8/10-8--------------------------
G|-----------10-10-------------------
D|-----------------------------------
A|-----------------------------------
E|-----------------------------------

E|---8/10-10-8--------------------
B|--------------8-----8--10-8--10-
G|--------------------------------
D|--------------------------------
A|--------------------------------
E|--------------------------------

tabs and chords, guitar tabs, music contests, music covers, songsterr, reverbnation, renditions, tabulature, bollywood chords, ultimate guitar, yousician, guitar lessons, torrins, fender, gibson, acoustic guitar, electric guitar, youtube covers, gootar, guitar tuner, A-Z tabs, 911 tabs