Guitar Tabs for Lonely Day

(/) Slide Up  (\) Slide Down  (h) Hammer On  (p) Pull Off  (b) Bend (r) Release (v) Vibrato (x) Muted

Tabs for Song : 

Such a lonely Day, and its Mine, the most loneliest day of my life.
Such a Lonely Day, Should be banned, Its a day that I cant stand.
Play 2x.
E|--------------------------------------------------------------------------
B|-----------1-----------------0-----------------1-----------------0--------
G|--------2-----2-----------1-----1-----------0-----0-----------1-----1-----
D|-----2-----------2-----0-----------0-----2-----------2-----0-----------0--
A|--0-----------------------------------3-----------------------------------
E|--------------------1-----------------------------------0-----------------

The most loneliest day of my life.
The most loneliest day of my life.
Play 2x.
E|-----------------------------------------------------------------------------
B|-----------------------------------------------------------------------------
G|--2--------2--2--2--------------------5--------5--5--5-----------------------
D|--2--------2--2--2--3--------3--3--3--5--------5--5--5--2--------2--2--2-----
A|--0--------0--0--0--3--------3--3--3--3--------3--3--3--2--------2--2--2-----
E|--------------------1--------1--1--1--------------------0--------0--0--0-----

Paste any tab in acousterr's tab maker and we'll play it !!!
Now supports capo and sound effects for vibrato/pull-off/hammer/bends/mutes etc !!! Checkout help section
tabs and chords, guitar tabs, music transcription, music technology, deep learning, music information retrieval, transcribe into tabs & chords, chordify, music renditions, songsterr, reverbnation, tabulature, bollywood chords, ultimate guitar, yousician, guitar lessons, acoustic guitar, electric guitar, guitar tuner, 911 tabs