Guitar Tabs for The House Of The Rising Sun

(/) Slide Up  (\) Slide Down  (h) Hammer On  (p) Pull Off  (b) Bend (r) Release (v) Vibrato (x) Muted

Tabs for Song : 
BPM : 250

Song lyrics here 
E|--------------------0-----------------------------------0-----------------------
B|--------------1-----------1-----------------------1-----------1-----------------
G|-----------2--------------------2--------------0--------------------0-----------
D|--------2-----------------------------------2-----------------------------0-----
A|--0-----------------------------------3-----------------------------------------
E|--------------------------------------------------------------------------------

E|--------------2-----------------------------------1-----------------------------
B|--------3-----------3-----------------------1-----------1-----------------------
G|-----2--------------------2--------------2--------------------2--------------2--
D|--0-----------------------------3-----3-----------------------------------2-----
A|--------------------------------------------------------------------0-----------
E|--------------------------------------------------------------------------------

E|--------0-----------------------------------0-----------------------------------
B|--1-----------1-----------------------0-----------0-----------------------1-----
G|--------------------2--------------1--------------------1--------------2--------
D|--------------------------------2-----------------------------------2-----------
A|--------------------------------------------------------------0-----------------
E|--------------------------0-----------------------------------------------------

E|--0-----------------------------------0-----------------------------------0-----
B|--------1-----------------------0-----------0-----------------------1-----------
G|--------------2--------------1--------------------1--------------2--------------
D|--------------------------2-----------------------------------2-----------------
A|--------------------------------------------------------0-----------------------
E|--------------------0-----------------------------------------------------------

E|--------------------------------0-----------------------------------2-----------
B|--1-----------------------1-----------1-----------------------3-----------3-----
G|--------2--------------0--------------------0--------------2--------------------
D|--------------------2-----------------------------0-----0-----------------------
A|--------------3-----------------------------------------------------------------
E|--------------------------------------------------------------------------------

E|--------------------------1-----------------------------------0-----------------
B|--------------------1-----------1-----------------------1-----------1-----------
G|--2--------------2--------------------2--------------2--------------------2-----
D|--------3-----3-----------------------------------2-----------------------------
A|--------------------------------------------0-----------------------------------
E|--------------------------------------------------------------------------------

E|--------------------0-----------------------------------0-----------------------
B|--------------1-----------1-----------------------0-----------0-----------------
G|-----------0--------------------0--------------1--------------------1-----------
D|--------2-----------------------------------2-----------------------------------
A|--3-----------------------------------------------------------------------------
E|--------------------------------------0-----------------------------------0-----

E|--------------0-----------------
B|--------0-----------0-----------
G|-----1--------------------1-----
D|--2-----------------------------
A|--------------------------------
E|--------------------------------


tabs and chords, guitar tabs, music transcription, music technology, deep learning, music information retrieval, transcribe into tabs & chords, chordify, music renditions, songsterr, reverbnation, tabulature, bollywood chords, ultimate guitar, yousician, guitar lessons, acoustic guitar, electric guitar, guitar tuner, 911 tabs