Guitar Tabs for House Of The Rising Sun

(/) Slide Up  (\) Slide Down  (h) Hammer On  (p) Pull Off  (b) Bend (r) Release (v) Vibrato (x) Muted

Tabs for Song : House of the Rising Sun

      Am        C        D/F#     F          Am        Cmaj7    E
E|--------------------0------------------3/5--5-----5--3--------0--------
B|-----------0--1--------3-----0--1-----------5--------5--5--3--0-----3--
G|--0--2--------0--------2--2-----2-----------5--------4--------1--------
D|-----2--------2--------0--------3--------------------5--------2--------
A|-----0--------3-----------------3-----------0--------3--------2--------
E|-----------------------2--------1-----------------------------0--------

          Am       Cmaj7    D/F#     F       Am       E        Am       E
E|---3/5--5-----5--3--------------------------------------------------------
B|--------5--------5-----5--3-----0--1-----------------------0--------------
G|--------5--------4--------2--2-----2-----2--2-----2--1--------2--------1--
D|-----------------5--------0--------3--------2--------2--2-----2--------2--
A|--------0--------3-----------------3--------0--------2--------0--------2--
E|--------------------------2--------1-----------------0-----------------0--
tabs and chords, guitar tabs, music transcription, music technology, deep learning, music information retrieval, transcribe into tabs & chords, chordify, music renditions, songsterr, reverbnation, tabulature, bollywood chords, ultimate guitar, yousician, guitar lessons, acoustic guitar, electric guitar, guitar tuner, 911 tabs