Bass Tabs for The Beatles - Twist And Shout

The Beatles - Twist And Shout

Verse
G|-----------------------4--------------------------------
D|--------------4-----5-----5--7-----7-----7--5--4--------
A|--------4--5-----5--------------------------------7--5--
E|--5--7--------------------------5-----5-----------------

Alt Verse
G|-----------------------------------------
D|-----------------------------------------
A|-----2--4--5--5--------------------------
E|--5--------------3--3--5--5--5--5--5--5--

Bridge
G|--------------------------------------------------
D|--------------------------------------------------
A|--------------------------------------------------
E|--5--5--5--5--5--5--5--5--5--5--5--5--5--5--5--5--

Ending
G|-----------------------------
D|-----------------------------
A|--0--1--2--3--4--5--------5--
E|--------------------5--5-----
tabs and chords, guitar tabs, music transcription, music technology, deep learning, music information retrieval, transcribe into tabs & chords, chordify, music renditions, songsterr, reverbnation, tabulature, bollywood chords, ultimate guitar, yousician, guitar lessons, acoustic guitar, electric guitar, guitar tuner, 911 tabs