Black Shout - Bass Tabs

(/) Slide Up  (\) Slide Down  (h) Hammer On  (p) Pull Off  (b) Bend (r) Release (v) Vibrato (x) Muted

Tabs for Song : 
BPM : 184

Intro
G|-------------------------|-----------------------|-----------------------|-----------------------|
D|-------------------------|-----------------------|-----------------------|-----------------------|
A|-------------------------|-----------------------|-----------------------|-----------------------|
D|-------------------------|-----------------------|-----------------------|-----------------------|

G|-------------------------|-----------------------|-----------------------|-----------------------|
D|-------------------------|-----------------------|-----------------------|-----------------------|
A|-------------------------|-----------------------|-----------------------|-----------------------|
D|-------------------------|-----------------------|-----------------------|-----------------------|

G|-------------------------|-----------------------|-----------------------|-----------------------|
D|-------------------------|-----------------------|-----------------------|-----------------------|
A|-------------------------|-----------------------|-----------------------|-----------------------|
D|-------------------------|-----------------------|-----------------------|-----------------------|

G|-------------------------|-----------------------|-----------------------|-----------------------|
D|-------------------------|-----------------------|-----------------------|-----------------------|
A|-------------------------|-----------------------|-----------------------|-----------------------|
D|-------------------------|-----------------------|-----------------------|-----------------------|

G|-------------------------|-----------------------|-----------------------|-----------------------|
D|-------------------------|-----------------------|-----------------------|-----------------------|
A|-------------------------|-----------------------|-----------------------|-----------------------|
D|-------------------------|-----------------------|-----------------------|-----------------------|

G|-------------------------|-----------------------|
D|-------------------------|-----------------------|
A|-------------------------|-----------------------|
D|-------------------------|-----------------------|

G|-------------------------|-----------------------|-----------------------|-----------------------|
D|-------------------------|-----------------------|-----------------------|-----------------------|
A|-------------------------|-----------------------|-----------------------|-----------------------|
D|--2-----------5----------|7-----7--5--7--8-------|9----------------------|------------------0----|

G|-------------------------|-----------------------|-----------------------|-----------------------|
D|-------------------------|-----------------------|-----------------------|-----------------------|
A|-------------------------|-----------------------|-----------------------|-----------------------|
D|--2----------------------|-----------------------|-----------------------|-----------------------|

G|-------------------------|-----------------------|-----------------------|-----------------------|
D|-------------------------|-----------------------|-----------------------|-----------------------|
A|-------------------------|-----------------------|-----------------------|-----------------------|
D|--2--2--3--2-----2--3--2-|---2--3--2-----2--3--2-|2--2--3--2-----2--3--2-|---2--3--2--2--2---2\--|

Verse 1
G|-------------------------|-----------------------|-----------------------|-----------------------|
D|-------------------------|-----------------------|-----------------------|-----------------------|
A|-------------------------|-----------------------|-----------------------|-----------------------|
D|--2--2--3--2-----2--3--2-|---2--3--2-----2--3--2-|2--2--3--2-----2--3--2-|---2--3--2-----2--3--2-|
(Slap last part)
G|-------------------------|-----------------------|-----------------------|---------9------7/(9)--|
D|-------------------------|-----------------------|-----------------------|-----------------------|
A|-------------------------|-----------------------|-----------------------|-----------------------|
D|--2--2--3--2-----2--3--2-|---2--3--2-----2--3--2-|2----------------------|-2/5--9----------------|

G|-------------------------|-----------------------|-----------------------|-----------------------|
D|-------------------------|-----------------------|-----------------------|-----------------------|
A|-------------------------|-----------------------|-----------------------|-----------------------|
D|--2--2--3--2-----2--3--2-|---2--3--2-----2--3--2-|2--2--3--2-----2--3--2-|---2--3--2-----2---3/14\

G|-------------------------|-----------------------|-----------------------|-----------------------|
D|-------------------------|-----------------------|-----------------------|-----------------------|
A|-------------------------|-----------------------|-----------------------|-----------------------|
D|-----2--3--2-----2--3--2-|---2--3--2-----2--3--2-|2-----------3----------|4-----------5----------|

Verse 2
G|-------------------------|-----------------------|-----------------------|-----------------------|
D|-------------------------|-----------------------|-----------------------|-----------------------|
A|-------------------------|-----------------------|-----------------------|-----------------------|
D|--3--------------------5-|5v---------------------|2--------------------7-|7v---------------------|

G|-------------------------|-----------------------|-----------------------|-----------------------|
D|-------------------------|-----------------------|-----------------------|-----------------------|
A|-------------------------|-----------------------|-----------------------|-----------------------|
D|--3--------------------5-|5v---------------------|6--------------------7-|7v---------------------|

G|-------------------------|-----------------------|
D|-------------------------|-----------------------|
A|-----------------------7-|---7--5--2--7----------|
D|--2-----2--2--2--2--2----|-----------------------|

Chorus
G|-------------------------|-----------------------|-----------------------|-----------------------|
D|-------------------------|-----------------------|-----------------------|-----------------------|
A|--3-----3--3--3--3--3--5-|---5--5--3--5--7--5--3-|2-----2--2--2--2--2--7-|---7--9-----10----12\--|
D|-------------------------|-----------------------|-----------------------|-----------------------|

G|-------------------------|-----------------------|------------4--2--0----|-----------------------|
D|-------------------------|-----------------------|---------------------2-|---2--2--2--2--2--2--2-|
A|--3-----3--3--3--3--3--5-|---5--5--5--5--5--5--5-|2-----2--2-------------|-----------------------|
D|-------------------------|-----------------------|-----------------------|-----------------------|

G|-------------------------|-----------------------|-----------------------|-----------------------|
D|-------------------------|-----------------------|-----------------------|-----------------------|
A|--3-----3--3--3--3--3--5-|---5--5--5--5--5--5--5-|2-----2--2--2--2--2--7-|---7--7--7--7--7--7--7-|
D|-------------------------|-----------------------|-----------------------|-----------------------|

G|---------------2/5-----7-|---7-----9-----11------|-----------------------|-----------------------|
D|-------------------------|-----------------------|-----------------------|-----------------------|
A|--3--------3-------------|-----------------------|-----------------------|-----------------------|
D|-------------------------|-----------------------|2-----------5----------|7-----7--5--7--8-------|

G|-------------------------|-----------------------|
D|-------------------------|-----------------------|
A|-------------------------|-----------------------|
D|--9----------------------|------------------2----|

Bridge
G|-------------------------|-----------------------|-----------------------|-----------------------|
D|-------------------------|-----------------------|-----------------------|-----------------------|
A|-------------------------|-----------------------|7--7--5--7--7--7--5--7-|7--7--5--7-------------|
D|--2--2--0--2-----2--0--2-|---2--0--2-----2--0--2-|-----------------------|------------0--0--0--2-|

G|-------------------------|-----------------------|7--9--9--9--7--7--7----|-----------------------|
D|-------------------------|-----------------------|---------------------9-|9--7--7--7--0--0--0--0-|
A|-------------------------|-----------------------|-----------------------|-----------------------|
D|-----2--0--2-----2--0--2-|---2--0--2-----2--0--2-|-----------------------|-----------------------|

G|-------------------------|-----------------------|-----------------------|-----------------------|
D|-------------------------|------------------10-12|14v--------------------|-----------------------|
A|-------------------------|-----------------------|-----------------------|-----------------------|
D|--2----------------------|-----------------------|-----------------------|-----------------------|

Intro 2
G|-------------------------|-----------------------|-----------------------|---------7--9----------|
D|-------------------------|-----------------------|-----------------------|-----------------------|
A|--7----------------------|-----------------------|3----------------------|---5--7----------------|
D|-------------------------|-----------------------|-----------------------|-----------------------|

G|-------------------------|-----------------------|-----------------------|-----------------------|
D|--7----------------------|-----------------------|-----------------------|-----------------------|
A|-------------------------|-----------------------|-----------------------|-----------------------|
D|-------------------------|-----------------------|2----------------------|-----------------------|

Verse 3
G|-------------------------|-----------------------|-----------------------|-----------------------|
D|-------------------------|-----------------------|-----------------------|-----------------------|
A|-------------------------|-----------------------|-----------------------|-----------------------|
D|--2--2--3--2-----2--3--2-|---2--3--2-----2--3--2-|2--2--3--2-----2--3--2-|---2--3--2-----2--3--2-|

G|-----------9-----7-----9-|---7-----15----14-12---|-----------------------|-----------------------|
D|--5--7-------------------|-----------------------|-----------------------|-----------------------|
A|-------------------------|-----------------------|-----------------------|-----------------------|
D|-------------------------|-----------------------|2-----------3----------|4-----------5----------|

Verse 4
G|-------------------------|-----------------------|-----------------------|-----------------------|
D|-------------------------|-----------------------|-----------------------|-----------------------|
A|-------------------------|-----------------------|-----------------------|-----------------------|
D|--3--------------------5-|5v---------------------|2--------------------7-|7v---------------------|

G|-------------------------|-----------------------|-----------------------|-----------------------|
D|-------------------------|-----------------------|-----------------------|-----------------------|
A|-------------------------|-----------------------|-----------------------|-----------------------|
D|--3--------------------5-|5v---------------------|6--------------------7-|7v---------------------|

G|-------------------------|-----------------------|
D|-------------------------|-----------------------|
A|-----------------------7-|---7--5--2--7----------|
D|--2-----2--2--2--2--2----|-----------------------|

Chorus 2
G|-------------------------|-----------------------|-----------------------|-----------------------|
D|-------------------------|-----------------------|-----------------------|-----------------------|
A|--3-----3--3--3--3--3--5-|---5--5--3--5--7--5--3-|2-----2--0--2--2--2--7-|---7--9-----10----12\--|
D|-------------------------|-----------------------|-----------------------|-----------------------|

G|-------------------------|-----------------------|-----------------------|-----------------------|
D|-------------------------|-----------------------|-----------------------|-----------------------|
A|--3------3/15-15-15-15\5-|---5--6--5--5--5--5--5-|2-----2--2--2--2--2----|-----------------------|
D|-------------------------|-----------------------|---------------------2-|---2--2--2--2--2--2--2-|

G|-------------------------|-----------------------|-----------------------|-----------------------|
D|-------------------------|-----------------------|-----------------------|-----------------------|
A|--3------3/15-15-15\3--5-|---5--6--5--5--5--5--5-|2-----2--2--2--2--2--7-|---7--9-----10----12---|
D|-------------------------|-----------------------|-----------------------|-----------------------|

G|--------------2--5-----7-|---7-----9-----11------|-----------------------|-----------------------|
D|-------------------------|-----------------------|-----------------------|-----------------------|
A|--3--------3-------------|-----------------------|-----------------------|-----------------------|
D|-------------------------|-----------------------|2-----------5----------|7-----7--5--7--8-------|

G|-------------------------|-----------------------|
D|-------------------------|-----------------------|
A|-------------------------|-----------------------|
D|--9----------------------|------------------2----|

Bridge 2
G|-------------------------|-----------------------|-----------------------|-----------------------|
D|-------------------------|-----------------------|-----------------------|-----------------------|
A|-------------------------|-----------------------|-----------------------|-----------------------|
D|--2--2-----2--2-----2--2-|---2--2-----2--2--0----|2--2-----2--2-----2--2-|---2--2--------12\-----|
(slap)
G|-----------x--9----------|---9-----x--7--9-------|9-----x--7-----x--4----|x--2-----x---9\--------|
D|-----------x-------------|---------x--------7----|------x--------x-------|x--------x-------------|
A|--7--7-----x--------7--7-|---------x-------------|------x--------x-------|x--------x-------------|
D|-----------x-------------|---------x-------------|------x--------x-------|x--------x-------------|

Solo
G|-------------------------|-----------------------|-----------------------|-----------------------|
D|-------------------------|-----------------------|-----------------------|-----------------------|
A|--7--7--7--7--7--7--7--5-|5--5--5--5--5--5--5--5-|3--3--3--3--3--3--3--3-|2--2---2/14-14-14-14\2-|
D|-------------------------|-----------------------|-----------------------|-----------------------|

G|-------------------------|-----------------------|---------------------9-|---7-------------------|
D|-------------------------|-----------------------|-----------------------|------10-9--7----------|
A|--0--0--0--0--0--0--0--2-|2--2--2--2--2--2--2--2-|3--3--3--3--3--3--3----|---------------10-9--7-|
D|-------------------------|-----------------------|-----------------------|-----------------------|

G|-----------------------4-|---4--4--4--4--4--4--4-|9--9--9--9--9--7-------|-----------------------|
D|-------------------------|-----------------------|---------------------9v------------------------|
A|--2--2--2--2--2--2--2----|-----------------------|-----------------------|-----------------------|
D|-------------------------|-----------------------|-----------------------|-----------------------|

Bridge 3
G|-------------------------|-----------------------|-----------------------|-----------------------|
D|-------------------------|-----------------------|-----------------------|------------------15\--|
A|-------------------------|-----------------------|-----------------------|-----------------------|
D|-------------------------|-----------------------|-----------------------|-----------------------|

Verse 5
G|-------------------------|-----------------------|-----------------------|-----------------------|
D|-------------------------|-----------------------|-----------------------|-----------------------|
A|-------------------------|-----------------------|-----------------------|-----------------------|
D|--3--3--3--3--3--3--3--3-|5--5--5--5--5--5--5--5-|6--6--6--6--6--6--6--6-|7--7--7--7--7--7--7--7-|

G|-------------------------|-----------------------|-----------------------|
D|-------------------------|-----------------------|-----------------------|
A|-----------------------7-|---7--5--2--7----------|-----------------------|
D|--2-----2--2--2--2--2----|-----------------------|-----------------------|

Chorus 3
G|-------------------------|-----------------------|-----------------------|-----------------------|
D|-------------------------|-----------------------|-----------------------|-----------------------|
A|--3-----3--3--3--3--3--5-|---5--5--3--5--7--5--3-|2-----2--2--2--2--2--7-|---7--9-----10----12\--|
D|-------------------------|-----------------------|-----------------------|-----------------------|

G|-------------------------|-----------------------|------------4--2--0----|-----------------------|
D|-------------------------|-----------------------|---------------------2-|---2--2--2--2--2--2--2-|
A|--3------3/15-15-15-15\5-|---5--7--5--9--9--9--5-|2-----2--2-------------|-----------------------|
D|-------------------------|-----------------------|-----------------------|-----------------------|

G|-------------------------|-----------------------|-----------------------|-----------------------|
D|-------------------------|-----------------------|-----------------------|-----------------------|
A|--3-----3--3--3--3--3--5-|---5--5--5--5--5--5--5-|2-----2--2--2--2--2--7-|---7--7--7--7--7--7--7-|
D|-------------------------|-----------------------|-----------------------|-----------------------|

G|---------------2/5-----7-|---7-----9-----11\-----|-----------------------|-----------------------|
D|-------------------------|-----------------------|-----------------------|-----------------------|
A|--3--------3-------------|-----------------------|-----------------------|-----------------------|
D|-------------------------|-----------------------|2-----------5----------|7-----7--5--7--8-------|

G|-------------------------|-----------------------|
D|-------------------------|-----------------------|
A|-------------------------|-----------------------|
D|--9----------------------|------------------2----|

Outro
G|-------------------------|-----------------------|-----------------------|-----------------------|
D|--------2--2--0----------|-----------------------|-----------------------|-----------------------|
A|-----------------2--1--0-|-----------------------|-----------------------|-----------------------|
D|--2----------------------|2--2v------------------|-----------------------|-----------------------|

Use manual mode to free up cursor. Paste any tab in acousterr tab maker and we'll play it !!!
tabs and chords, guitar tabs, music transcription, music technology, deep learning, music information retrieval, transcribe into tabs & chords, chordify, music renditions, songsterr, reverbnation, tabulature, bollywood chords, ultimate guitar, yousician, guitar lessons, acoustic guitar, electric guitar, guitar tuner, 911 tabs