Bass Tabs for The Beatles, Tony Sheridan - My Bonnie

The Beatles, Tony Sheridan - My Bonnie

Intro
G|--------------
D|--------------
A|--------------
E|--0--2--4--5--

Verse
G|--------------
D|--5--3--2-----
A|-----------5--
E|--------------

G|--------------------------------------------------
D|-----2--5--2--3--3-----3-----2--5--2-----2--5--2--
A|--3-----------------3-----3-----------3-----------
E|--------------------------------------------------

G|--------------------------------------------------------
D|-----2--5--2-----------------5--5-----5--5-----5-----5--
A|--3-----------5--3--2-----------------------------------
E|-----------------------5--3--------3--------3-----3-----

G|-----------------------------------------------------------------------------
D|-----2--5--2--3--3-----3-----------------7--7-----7-----4--7--4--5--3--2-----
A|--3-----------------3-----3--3--2--1-----------------5--------------------5--
E|--------------------------------------5--------5-----------------------------

G|-----------------------------------
D|--------------5--5--5--5--5--5--5--
A|--3--3--3--3-----------------------
E|-----------------------------------

Bridge
G|-----------------------------------------------------------------------
D|---------------------------------------------------------2/3------2/3--
A|---2/3--3--3------2/3-----3--3---------2/3------2/3--------------------
E|-----------------------------------------------------------------------

G|-----------------------------------------------------------------------------
D|-----------------------5--3--2-----5--3--2-----------------5--5--5--5--5-----
A|--5-----5-----5-----5-----------5-----------5--3--3--3--3-----------------5--
E|-----------------------------------------------------------------------------
tabs and chords, guitar tabs, music transcription, music technology, deep learning, music information retrieval, transcribe into tabs & chords, chordify, music renditions, songsterr, reverbnation, tabulature, bollywood chords, ultimate guitar, yousician, guitar lessons, acoustic guitar, electric guitar, guitar tuner, 911 tabs