Bass Tabs for The Beatles - Roll Over Beethoven

The Beatles - Roll Over Beethoven

G|-----------4--------------------------4--5--4--------
D|-----4--7--------------4--------4--7-----------7--4--
A|--5--------------4--7--------5-----------------------
E|--------------5--------------------------------------

G|-----------------------------------4--5--4--------
D|-----------2--3--2-----------4--7-----------7--4--
A|-----2--5-----------5--2--5-----------------------
E|--3-----------------------------------------------

G|-----------------------------------------------------
D|-----------------------------4--5--6--7--6--5--4-----
A|-----4--7--4-----2--5--2--5-----------------------5--
E|--5-----------3--------------------------------------
tabs and chords, guitar tabs, music transcription, music technology, deep learning, music information retrieval, transcribe into tabs & chords, chordify, music renditions, songsterr, reverbnation, tabulature, bollywood chords, ultimate guitar, yousician, guitar lessons, acoustic guitar, electric guitar, guitar tuner, 911 tabs