Bass Tabs for The Beatles - Rock N Roll Music

The Beatles - Rock N Roll Music

1st Part
G|--------------------------------------------------
D|-----------4--5--4-----------------4--5--4--------
A|-----4--7-----------7--4-----4--7-----------7--4--
E|--5-----------------------5-----------------------

G|-----------4--5--4--------------------------------
D|-----4--7-----------7--4-----------4--5--4--------
A|--5--------------------------4--7-----------7--4--
E|--------------------------5-----------------------

G|-----------6--7--6-----------------6-----------------------6-----
D|-----6--9-----------9--6-----6--9--------------4-----6--9--------
A|--7-----------------------7--------------4--7-----7--------------
E|--------------------------------------5-----------------------5--

2nd Part
G|-----------6--9--6--------------------------------
D|-----6--9-----------9--6-----------4--7--4--------
A|--7--------------------------4--7-----------7--4--
E|--------------------------5-----------------------

G|-----------4--5--4-----------------6--9--
D|-----4--7-----------7--4-----6--9--------
A|--5-----------------------7--------------
E|-----------------------------------------
tabs and chords, guitar tabs, music transcription, music technology, deep learning, music information retrieval, transcribe into tabs & chords, chordify, music renditions, songsterr, reverbnation, tabulature, bollywood chords, ultimate guitar, yousician, guitar lessons, acoustic guitar, electric guitar, guitar tuner, 911 tabs