Guitar Tabs for The Beatles - Norwegian Wood

The Beatles - Norwegian Wood

CAPO in 2nd Fret

    D
E|--------2--2--2--2-----------------------2--2--2--2-----------------
B|--3-----3--3--3--3---3-------3-----------3--3--3--3--------3--------
G|--2-----2--2--2--2---2h-4p2--0-----2-----2--2--2--2--0-----0-----2--
D|--0--------------------------------4-----------------2-----------4--
A|--------------------------------------------------------------------
E|--------------------------------------------------------------------
                                                                              2x
E|--------2--2--2--2--------------------------2--2--2--2--------2--2--2--2--
B|--3-----3--3--3--3-----------3---------3----3--3--3--3--------3--3--3--3--
G|--2-----2--2--2--2-----------0---------0h2--2--2--2--2--2-----2--2--2--2--
D|--0--------------------------------0---0----------------0-----------------
A|-----------------------3-----------2---0----------------------------------
E|--------------------------------------------------------------------------

1st Verse
    
    D
          I           once had  a   girl               or should I 
E|--------2--2--2--2-----------------------2--2--2--2-----------------
B|--3-----3--3--3--3---3-------3-----------3--3--3--3--------3--------
G|--2-----2--2--2--2---2h-4p2--0-----2-----2--2--2--2--0-----0-----2--
D|--0--------------------------------4-----------------2-----------4--
A|--------------------------------------------------------------------
E|--------------------------------------------------------------------

    say                  she  once  had   me
E|--------2--2--2--2--------------------------2--2--2--2--------2--2--2--2--
B|--3-----3--3--3--3-----------3---------3----3--3--3--3--------3--3--3--3--
G|--2-----2--2--2--2-----------0---------0h2--2--2--2--2--2-----2--2--2--2--
D|--0--------------------------------0---0----------------0-----------------
A|-----------------------3-----------2---0----------------------------------
E|--------------------------------------------------------------------------

    D
   She                showed me her room                isn't     it   
E|--------2--2--2--2-----------------------2--2--2--2-----------------
B|--3-----3--3--3--3---3-------3-----------3--3--3--3--------3--------
G|--2-----2--2--2--2---2h-4p2--0-----2-----2--2--2--2--0-----0-----2--
D|--0--------------------------------4-----------------2-----------4--
A|--------------------------------------------------------------------
E|--------------------------------------------------------------------

    good?                norwegian       wood
E|--------2--2--2--2--------------------------2--2--2--2--------2--2--2--2--
B|--3-----3--3--3--3-----------3---------3----3--3--3--3--------3--3--3--3--
G|--2-----2--2--2--2-----------0---------0h2--2--2--2--2--2-----2--2--2--2--
D|--0--------------------------------0---0----------------0-----------------
A|-----------------------3-----------2---0----------------------------------
E|--------------------------------------------------------------------------

1st Chorus
    
    Dm
She  asked    me    to  stay    and    she   told   me   to    sit               anywhere  
E|--1-----1--1--1--1-----1-----1--1--1--1-----1--1--1--1--1-----1-----1--1--1--1-----1--
B|--3-----3--3--3--3-----3-----3--3--3--3-----3--3--3--3--3-----3-----3--3--3--3-----3--
G|--2-----2--2--2--2-----2-----2--2--2--2-----2--2--2--2--2-----2-----2--2--2--2-----2--
D|--0--------------------0--------------------0-----------------0--------------------0--
A|--0--------------------0--------------------0-----------------0--------------------0--
E|--------------------------------------------------------------------------------------
     
    G
E|--3-----3--3--3--3-----3-----3--3--3--3-----3-----3--3--3--3-----3-----3--3--3--3--
B|--3-----3--3--3--3-----3-----3--3--3--3-----3-----3--3--3--3-----3-----3--3--3--3--
G|--0-----0--0--0--0-----0-----0--0--0--0-----0-----0--0--0--0-----0-----0--0--0--0--
D|--0-----0--0--0--0-----0-----0--0--0--0-----0-----0--0--0--0-----0-----0--0--0--0--
A|--2--------------------2--------------------2--------------------2-----------------
E|--3--------------------3--------------------3--------------------3-----------------

    Dm
So  I      looked    around     and    I     noticed    there wasn't    a      chair
E|--1-----1--1--1--1-----1-----1--1--1--1-----1--1--1--1--1-----1-----1--1--1--1-----1--
B|--3-----3--3--3--3-----3-----3--3--3--3-----3--3--3--3--3-----3-----3--3--3--3-----3--
G|--2-----2--2--2--2-----2-----2--2--2--2-----2--2--2--2--2-----2-----2--2--2--2-----2--
D|--0--------------------0--------------------0-----------------0--------------------0--
A|--0--------------------0--------------------0-----------------0--------------------0--
E|--------------------------------------------------------------------------------------

    Em7                                       A7
E|--0-----0--0--0--0-----0-----0--0--0--0-----0-----0--0--0--0-----0-----0--0--0--0--
B|--3-----3--3--3--3-----3-----3--3--3--3-----2-----2--2--2--2-----2-----2--2--2--2--
G|--0-----0--0--0--0-----0-----0--0--0--0-----0-----0--0--0--0-----0-----0--0--0--0--
D|--2-----2--2--2--2-----2--------------------2-----2--2--2--2-----2-----2--2--2--2--
A|--2--------------------2--------------------0--------------------0-----------------
E|-----------------------------------------------------------------------------------

2nd Verse
    
    D
          I            sat  on   a  rug                 biding     my 
E|--------2--2--2--2-----------------------2--2--2--2-----------------
B|--3-----3--3--3--3---3-------3-----------3--3--3--3--------3--------
G|--2-----2--2--2--2---2h-4p2--0-----2-----2--2--2--2--0-----0-----2--
D|--0--------------------------------4-----------------2-----------4--
A|--------------------------------------------------------------------
E|--------------------------------------------------------------------

   time                  drinking   her wine
E|--------2--2--2--2--------------------------2--2--2--2--------2--2--2--2--
B|--3-----3--3--3--3-----------3---------3----3--3--3--3--------3--3--3--3--
G|--2-----2--2--2--2-----------0---------0h2--2--2--2--2--2-----2--2--2--2--
D|--0--------------------------------0---0----------------0-----------------
A|-----------------------3-----------2---0----------------------------------
E|--------------------------------------------------------------------------
 
    D
   We               talked until    two                and  then  she
E|--------2--2--2--2-----------------------2--2--2--2-----------------
B|--3-----3--3--3--3---3-------3-----------3--3--3--3--------3--------
G|--2-----2--2--2--2---2h-4p2--0-----2-----2--2--2--2--0-----0-----2--
D|--0--------------------------------4-----------------2-----------4--
A|--------------------------------------------------------------------
E|--------------------------------------------------------------------

   said                  it's time  for bed
E|--------2--2--2--2--------------------------2--2--2--2--------2--2--2--2--
B|--3-----3--3--3--3-----------3---------3----3--3--3--3--------3--3--3--3--
G|--2-----2--2--2--2-----------0---------0h2--2--2--2--2--2-----2--2--2--2--
D|--0--------------------------------0---0----------------0-----------------
A|-----------------------3-----------2---0----------------------------------
E|--------------------------------------------------------------------------

Bridge
     
    D
E|--------2--2--2--2-----------------------2--2--2--2-----------------
B|--3-----3--3--3--3---3-------3-----------3--3--3--3--------3--------
G|--2-----2--2--2--2---2h-4p2--0-----2-----2--2--2--2--0-----0-----2--
D|--0--------------------------------4-----------------2-----------4--
A|--------------------------------------------------------------------
E|--------------------------------------------------------------------
                                                                                2x
E|--------2--2--2--2--------------------------2--2--2--2--------2--2--2--2--
B|--3-----3--3--3--3-----------3---------3----3--3--3--3--------3--3--3--3--
G|--2-----2--2--2--2-----------0---------0h2--2--2--2--2--2-----2--2--2--2--
D|--0--------------------------------0---0----------------0-----------------
A|-----------------------3-----------2---0----------------------------------
E|--------------------------------------------------------------------------

2nd Chorus

    Dm             
She told   me    she   worked    in    the   morning    and   started    to    laugh
E|--1-----1--1--1--1-----1-----1--1--1--1-----1--1--1--1--1-----1-----1--1--1--1-----1--
B|--3-----3--3--3--3-----3-----3--3--3--3-----3--3--3--3--3-----3-----3--3--3--3-----3--
G|--2-----2--2--2--2-----2-----2--2--2--2-----2--2--2--2--2-----2-----2--2--2--2-----2--
D|--0--------------------0--------------------0-----------------0--------------------0--
A|--0--------------------0--------------------0-----------------0--------------------0--
E|--------------------------------------------------------------------------------------
  
    G
E|--3-----3--3--3--3-----3-----3--3--3--3-----3-----3--3--3--3-----3-----3--3--3--3--
B|--3-----3--3--3--3-----3-----3--3--3--3-----3-----3--3--3--3-----3-----3--3--3--3--
G|--0-----0--0--0--0-----0-----0--0--0--0-----0-----0--0--0--0-----0-----0--0--0--0--
D|--0-----0--0--0--0-----0-----0--0--0--0-----0-----0--0--0--0-----0-----0--0--0--0--
A|--2--------------------2--------------------2--------------------2-----------------
E|--3--------------------3--------------------3--------------------3-----------------

    Dm
 I told    her    I     didn't  and  crawled off      to      sleep    in     the    bath
E|--1-----1--1--1--1-----1-----1--1--1--1-----1--1--1--1--1-----1-----1--1--1--1-----1--
B|--3-----3--3--3--3-----3-----3--3--3--3-----3--3--3--3--3-----3-----3--3--3--3-----3--
G|--2-----2--2--2--2-----2-----2--2--2--2-----2--2--2--2--2-----2-----2--2--2--2-----2--
D|--0--------------------0--------------------0-----------------0--------------------0--
A|--0--------------------0--------------------0-----------------0--------------------0--
E|--------------------------------------------------------------------------------------

    Em7                                       A7
E|--0-----0--0--0--0-----0-----0--0--0--0-----0-----0--0--0--0-----0-----0--0--0--0--
B|--3-----3--3--3--3-----3-----3--3--3--3-----2-----2--2--2--2-----2-----2--2--2--2--
G|--0-----0--0--0--0-----0-----0--0--0--0-----0-----0--0--0--0-----0-----0--0--0--0--
D|--2-----2--2--2--2-----2--------------------2-----2--2--2--2-----2-----2--2--2--2--
A|--2--------------------2--------------------0--------------------0-----------------
E|-----------------------------------------------------------------------------------

Last Verse

    D
   And                  when  I  awoke                 I     was   alone
E|--------2--2--2--2-----------------------2--2--2--2-----------------
B|--3-----3--3--3--3---3-------3-----------3--3--3--3--------3--------
G|--2-----2--2--2--2---2h-4p2--0-----2-----2--2--2--2--0-----0-----2--
D|--0--------------------------------4-----------------2-----------4--
A|--------------------------------------------------------------------
E|--------------------------------------------------------------------

                        this  bird  has flown
E|--------2--2--2--2--------------------------2--2--2--2--------2--2--2--2--
B|--3-----3--3--3--3-----------3---------3----3--3--3--3--------3--3--3--3--
G|--2-----2--2--2--2-----------0---------0h2--2--2--2--2--2-----2--2--2--2--
D|--0--------------------------------0---0----------------0-----------------
A|-----------------------3-----------2---0----------------------------------
E|--------------------------------------------------------------------------
    
    D
    So                  I  lit  a  fire                  isn't     it   
E|--------2--2--2--2-----------------------2--2--2--2-----------------
B|--3-----3--3--3--3---3-------3-----------3--3--3--3--------3--------
G|--2-----2--2--2--2---2h-4p2--0-----2-----2--2--2--2--0-----0-----2--
D|--0--------------------------------4-----------------2-----------4--
A|--------------------------------------------------------------------
E|--------------------------------------------------------------------

   good?                 norwegian    wood
E|--------2--2--2--2--------------------------2--2--2--2--------2--2--2--2--
B|--3-----3--3--3--3-----------3---------3----3--3--3--3--------3--3--3--3--
G|--2-----2--2--2--2-----------0---------0h2--2--2--2--2--2-----2--2--2--2--
D|--0--------------------------------0---0----------------0-----------------
A|-----------------------3-----------2---0----------------------------------
E|--------------------------------------------------------------------------

Outro

    D
E|--------2--2--2--2-----------------------2--2--2--2-----------------
B|--3-----3--3--3--3---3-------3-----------3--3--3--3--------3--------
G|--2-----2--2--2--2---2h-4p2--0-----2-----2--2--2--2--0-----0-----2--
D|--0--------------------------------4-----------------2-----------4--
A|--------------------------------------------------------------------
E|--------------------------------------------------------------------
                                                                              
E|--------2--2--2--2--------------------------2--2--2--2--------2--2--2--2--
B|--3-----3--3--3--3-----------3---------3----3--3--3--3--------3--3--3--3--
G|--2-----2--2--2--2-----------0---------0h2--2--2--2--2--2-----2--2--2--2--
D|--0--------------------------------0---0----------------0-----------------
A|-----------------------3-----------2---0----------------------------------
E|--------------------------------------------------------------------------

Sittar Riff
E|--5---5h7--5--------------------------------------
B|--------------8--7-----5--8--7-----------8--------
G|--------------------------------7-----5-----4--2--
D|--------------------------------------------------
A|--------------------------------------------------
E|--------------------------------------------------










tabs and chords, guitar tabs, music transcription, music technology, deep learning, music information retrieval, transcribe into tabs & chords, chordify, music renditions, songsterr, reverbnation, tabulature, bollywood chords, ultimate guitar, yousician, guitar lessons, acoustic guitar, electric guitar, guitar tuner, 911 tabs