Bass Tabs for The Beatles - Help!

The Beatles - Help!

Intro
G|-----------------------------------------------------------------------------
D|--9--9--9--9--9--9--7--7--5--5--5--5--5--5--4--4--2--2--2--2--2--2--2--2--7--
A|--------------------------------------------------------------------------0--
E|-----------------------------------------------------------------------------

Verse
G|----------------------------------------------------------------------------------------------
D|--7--7--------7--7-----7--------------------------4--4--------4--4-----4--------5--7--7-----5--
A|--------7--7--------7-----4--4--------4--4-----4--------4--4--------4-----5--5-----------7-----
E|--------------------------------4--4--------4--------------------------------------------------

G|-----------------------------------------------------------------------------------------------------
D|--7--7--------7--7-----7--------------------------4--4--------4--4-----4--------5--5--7--7--7--7--7--
A|--------7--7--------7-----4--4--------4--4-----4--------4--4--------4-----5--5-----------------------
E|--------------------------------4--4--------4--------------------------------------------------------

Chorus
G|--------------------------------------------------------------------------------------
D|--------------------------------------------------------------------------------------
A|--2--2--------2--2--------2--2--------2-----------5--5--------5--5--------5--5--------
E|--------2--2--------2--2--------2--2-----5--3--3--------3--3--------3--3--------3--2--

G|-----------------------------------------------------
D|------------------------------------------------2/7--
A|--------------2--2-----2--------------2--2-----------
E|--0--0--4--4--------4-----0--0--4--4--------4--------


G|-----------------------------
D|--7--7--------7--7-----5--7--
A|--------7--7--------7--------
E|-----------------------------

Alt. Verse
G|-----------------------------------------------------
D|--7-----------------4-----------------5--7--7-----5--
A|-----------4-----------------5-----------------7-----
E|-----------------------------------------------------

G|----------------------------------------------------------------------------------------------
D|--7--7--------7--7-----7--------------------------4--4--------4--4-----4--------5--7--7-----5--
A|--------7--7--------7-----4--4--------4--4-----4--------4--4--------4-----5--5-----------7-----
E|--------------------------------4--4--------4--------------------------------------------------

Final
G|-------------------------------
D|--------------4--4--4-----4/7---
A|--------4--4----------4-----0---
E|--2--2--------------------------
tabs and chords, guitar tabs, music transcription, music technology, deep learning, music information retrieval, transcribe into tabs & chords, chordify, music renditions, songsterr, reverbnation, tabulature, bollywood chords, ultimate guitar, yousician, guitar lessons, acoustic guitar, electric guitar, guitar tuner, 911 tabs