Bass Tabs for The Beatles - I Saw Her Standing There

The Beatles - I Saw Her Standing There

Intro
G|--------------------------
D|--------6-----9--9--7--6--  4x
A|--7--7-----7--------------
E|--------------------------

Verse
G|--------------------------
D|--------6-----9--9--7--6--  2x
A|--7--7-----7--------------
E|--------------------------

G|--------------------------
D|--------------------------
A|--------4-----7--7--5--4--
E|--5--5-----5--------------

G|--------------------------
D|--------6-----9--9--7--6--  3x
A|--7--7-----7--------------
E|--------------------------

G|--------------------------------------------------
D|--------------------------------------------------
A|--------6-----9--9--7--6--------6-----9--9--7--6--
E|--7--7-----7--------------7--7-----7--------------

Chorus
G|--------------------------------------------------
D|--------------6--6--6--6--7--7--7--7--10-10-10-10-
A|--7--7--7--7--------------------------------------
E|--------------------------------------------------

G|--------------------------------------------------
D|--------6-----9--9--7--6--------------------------
A|--7--7-----7--------------------6-----9--9--7--6--
E|--------------------------7--7-----7--------------

G|--------------------------------------------------
D|--------6-----9--9--7--6--------6-----9--9--7--6--
A|--7--7-----7--------------7--7-----7--------------
E|--------------------------------------------------

Tension
G|--------------------------
D|--------------------------  6x
A|--------4-----7--7--5--4--
E|--5--5-----5--------------

G|--------------------------
D|--------------------------  2x
A|--------6-----9--9--7--6--
E|--7--7-----7--------------

G|--------------------------
D|--------------------------  2x
A|--------4-----7--7--5--4--
E|--5--5-----5--------------
tabs and chords, guitar tabs, music transcription, music technology, deep learning, music information retrieval, transcribe into tabs & chords, chordify, music renditions, songsterr, reverbnation, tabulature, bollywood chords, ultimate guitar, yousician, guitar lessons, acoustic guitar, electric guitar, guitar tuner, 911 tabs