Guitar Tabs for I Saw Her Standing Here - Beatles Solo

(/) Slide Up  (\) Slide Down  (h) Hammer On  (p) Pull Off  (b) Bend (r) Release (v) Vibrato (x) Muted

Tabs for Song : I Saw Her Standing Here (Solo)

Song lyrics here
E|--------------------------------------------------------------------------------------4--4--4--------------
B|-----------------------------------------3--------------------------------3-----------3--3--3--------------
G|--3--2---0h2-----------------0--2---2/4------4\2--0--------------0---2/4------4\2--0--4--4--4---4\2--0-----
D|--------------2--2---0h2--2--------------------------2------0h2--------------------------------------------
A|--------------------------------------------------------2--------------------------------------------------
E|-----------------------------------------------------------------------------------------------------------

Song lyrics here
E|--------------------------------------
B|--------------------------------------
G|-----------------------2--------------
D|-----------0--2---2/4-----4--0-----0--
A|---0h2--2-----------------------2-----
E|--------------------------------------

Now supports capo and sound effects for vibrato/pull-off/hammer/bends/mutes etc !!! Checkout help section

E|------------------------------------------------10------ -10--------10-------
B|--------------------8--10b12-10b12-12r10-8-------- 10h12--12--10h12-10-12p10-
G|-----------7---7h9--------------------------9--------------------------------
D|--5---7/9--------------------------------------------------------------------
A|-----------------------------------------------------------------------------
E|-----------------------------------------------------------------------------

E|---10---------------------------------------------------
B|---12---12p10--------------------------------------------
G|---X----------12-----7--------------------------0-4\2------
D|-----------------7/9----9--5---------------0h2----------
A|-----------------------------5h7-7----------------------
E|------------------------------------3-4-5---------------
tabs and chords, guitar tabs, music transcription, music technology, deep learning, music information retrieval, transcribe into tabs & chords, chordify, music renditions, songsterr, reverbnation, tabulature, bollywood chords, ultimate guitar, yousician, guitar lessons, acoustic guitar, electric guitar, guitar tuner, 911 tabs