Guitar Tabs for The Beatles - Help!

The Beatles - Help!

Intro

 (Bm)
Help, I need somebody

 (G)
Help, not just anybody

 (E)
Help, you know I need someone

 (A)
Help
 
E|--------------------------------------------------
B|-----------0-----------0-----------0-----------0--
G|--------0-----------0-----------0-----------0-----
D|-----5-----------4-----------3-----------2--------
A|--7-----------6-----------5-----------4-----------
E|--------------------------------------------------

1st Verse

(A)                             (C#m)
   When I was younger so much younger than today

(F#m)                          (D)      (G)    (A)
   I never needed anybody's help in any way

(A)                                     (C#m)
   But know these days are gone I'm not so self-assured

(F#m)                                    (D)      (G)       (A)
   Now I find I've changed my mind and opened up the doors

Chorus

  (Bm)
Help me if you can I'm feeling down

       (G)
And I do appreciate you being'round

(E)
Help me get my feet back on the ground

            (A)
Won't you please please help me

2nd Verse

(A)                                (C#m)
   And now my life has changed in oh so many ways

(F#m)                         (D)     (G)       (A)
   My independence seems to vanish in the haze

(A)                            (C#m)
   But every now and then I feel so insecure

(F#m)                                   (D)    (G)      (A)
   I know that I just need you like I never done before

Chorus

 (Bm)
Help me if you can I'm feeling down

       (G)
And I do appreciate you being around

 (E)
Help me get my feet back on the ground

            (A)
Won't you please please help me?

3rd Verse

(A)                              (C#m)
   When I was younger so much younger than today
   
(F#m)                          (D)      (G)    (A)
   I never needed anybody's help in any way
   
(A)                                      (C#m)
   But know these days are gone, I'm not so self-assured
   
(F#m)                                    (D)      (G)       (A)
   Now I find I've changed my mind and opened up the doors

Chorus

 (Bm)
Help me if you can I'm feeling down

       (G)
And I do appreciate you being'round

(E)
Help me get my feet back on the ground

            (A)
Won't you please please help me?

Outro

(F#m)           (A)
   Help me help meeee oooooooh
----------------------------------------------------------------------------------------------------
Chords

    Bm    G     E     A
E|--2-----3-----0-----0--
B|--3-----3-----0-----2--
G|--4-----0-----1-----2--
D|--4-----0-----2-----2--
A|--2-----2-----2-----0--
E|--------3-----0--------

   C#m   F#m    D
E|--4-----2-----2--
B|--5-----2-----3--
G|--6-----2-----2--
D|--6-----4-----0--
A|--4-----4--------
E|--------2--------
tabs and chords, guitar tabs, music transcription, music technology, deep learning, music information retrieval, transcribe into tabs & chords, chordify, music renditions, songsterr, reverbnation, tabulature, bollywood chords, ultimate guitar, yousician, guitar lessons, acoustic guitar, electric guitar, guitar tuner, 911 tabs