Bass Tabs for The Beatles - Don't Let Me Down

The Beatles - Don't Let Me Down

Intro
G|--------------------
D|-----------------14\
A|--------------------
E|--0-----------------

Chorus
G|--------11-11-11-11-11----------11-11-11-------------9--9--9--9--9-----------9--9--9--9--9-----
D|-----11----------------11----11-------------------9-----------------9-----9--------------------
A|--9-----------------------9-----------------6--7-----------------------7--------------------7--
E|-----------------------------------------7-----------------------------------------------------

G|--------11-11-11-11-11----------11-------------9-----------
D|-----11----------------11----11-------------9-----9--------
A|--9-----------------------9-----------6--7-----------11-7--
E|-----------------------------------7-----------------------

Verse
G|-----------------------------------------
D|-----11----------11----------9-----------
A|--9--------7--9--------6--7--------6--7--
E|--------9-----------7-----------7--------

G|---------------------------------------9\
D|-----11----------11-------9--------------
A|--9--------7--9--------7--------6--7-----
E|--------9-----------7--------7-----------

I'm in love...
G|-----9--8--9--6--9-----9-----9-----9-----------------------------------------------------
D|--------------------9-----6-----------9--------------7--------6--------------------------
A|--7-----------------------------9-----------9--6--------9--------7-----9--6--7--4--6--2--
E|-----------------------------------------------------------------------------------------

G|-----------------------------------------------------------------------
D|--4--------7--------6--------------------------------6--7--7--6--------
A|-----6--------9--------7-----9--6--7-----6--7-----9--------------9--7--
E|--------------------------------------9--------------------------------
tabs and chords, guitar tabs, music transcription, music technology, deep learning, music information retrieval, transcribe into tabs & chords, chordify, music renditions, songsterr, reverbnation, tabulature, bollywood chords, ultimate guitar, yousician, guitar lessons, acoustic guitar, electric guitar, guitar tuner, 911 tabs