Guitar Tabs for Don't Let Me Down

Tabs for Song : Don't let me down

E|--4--4--2-----11-11-11----6--6--6------6h7--7--6--
B|--------------------------------------------------
G|--------------------------------------------------
D|--------------------------------------------------
A|--------------------------------------------------
E|--------------------------------------------------

E|--------------11-11-11----6--6--6------6h7--7--6--
B|--9--9--7-----------------------------------------
G|--------------------------------------------------
D|--------------------------------------------------
A|--------------------------------------------------
E|--------------------------------------------------

E|--------------11-11-11----------------------------
B|--------------------------11-11-11----11h12-12-11-
G|--13-13-11----------------------------------------
D|--------------------------------------------------
A|--------------------------------------------------
E|--------------------------------------------------

E|--------------------------------------------------
B|--------------4--4--4-----------------------------
G|--------------------------3--3--3------3h4--4--3--
D|--6--6--4-----------------------------------------
A|--------------------------------------------------
E|--------------------------------------------------


tabs and chords, guitar tabs, music contests, music covers, songsterr, reverbnation, renditions, tabulature, bollywood chords, ultimate guitar, yousician, guitar lessons, torrins, fender, gibson, acoustic guitar, electric guitar, youtube covers, gootar, guitar tuner, A-Z tabs, 911 tabs