Bass Tabs for The Beatles - Can't Buy Me Love

The Beatles - Can't Buy Me Love

Intro 
G|--------------------------------
D|-----------------7--7--7--7--7-- 2x
A|--7--7--7--7--7-----------------
E|--------------------------------

G|--------------------------------
D|-----------------5--5--5--5--5--
A|--5--5--5--5--5-----------------
E|--------------------------------

Verse
G|--------------------------------------------------------------------------
D|--------------------------------------------------3--3--------3--3-----3--
A|--3--3--------3--3--------3--3--------3--3-----3--------3--3--------3-----
E|--------3--3--------3--3--------3--3--------3-----------------------------

G|-----------------------------------------------------------------
D|--------------------------5--5-----5--3--3--3-----3--------------
A|--3--3--------3--3-----3--------5--------------3-----3--3-----3--
E|--------3--3--------3--------------------------------------3-----

Chorus
G|-----------------------------------------------------------------------------------
D|-----------7--7--7--------------------------------------7--7-----7--------------5--
A|--7--7--7-----------3--3--------3--3-----3--7--7-----7--------7-----5--5-----5-----
E|--------------------------3--3--------3-----------7-----------------------5--------
tabs and chords, guitar tabs, music transcription, music technology, deep learning, music information retrieval, transcribe into tabs & chords, chordify, music renditions, songsterr, reverbnation, tabulature, bollywood chords, ultimate guitar, yousician, guitar lessons, acoustic guitar, electric guitar, guitar tuner, 911 tabs