Ukulele Tabs for Demons (imagine Dragons)

(/) Slide Up  (\) Slide Down  (h) Hammer On  (p) Pull Off  (b) Bend (r) Release (v) Vibrato

Tabs for Song : Demons (imagine dragons)

Song lyrics here
A|-----------------------------------------------------------------------------------------
E|--------3-----0--------------3-----0--------------5-----0--------------1-----1------1h0--
C|--0--0--------------2--0--0--------------2--0--0--------------2--0--0--------------------
G|-----------------------------------------------------------------------------------------



A|-----------------------------------------------------------------------------------------
E|--------3-----0--------------3-----0--------------5-----0--------------1-----1------1h0--
C|--0--0--------------2--0--0--------------2--0--0--------------2--0--0--------------------
G|-----------------------------------------------------------------------------------------

A|-----------------------------------3----2-----0----0--0--0--0---0--1----1----1--1--1--0------------
E|--3--3--3--3-----0--3-----3--3--0--3----3------------------------------------------------5---------
C|--------------------2-------------------------0----0--0--0--0---0--0----2----2--2--2--1--0---------
G|----------------------------------------------------------------------------------------------------

A|----------------------------------3----2----0----0--0--0--0-----0--1---1---1--1--1--0------------
E|--3--3--3--3----0--3-----3--3--0--3----3------------------------------------------------5---------
C|-------------------2------------------------0----0--0--0--0-----0--0---2---2--2--2--1---0---------
G|-------------------------------------------------------------------------------------------------------

A|--
E|---
C|---
G|--





Song lyrics here
A|--
E|--
C|--
G|--

Now supports capo and sound effects for vibrato/pull-off/hammer/bends etc !!! Checkout help section
tabs and chords, guitar tabs, music transcription, music technology, deep learning, music information retrieval, transcribe into tabs & chords, chordify, music renditions, songsterr, reverbnation, tabulature, bollywood chords, ultimate guitar, yousician, guitar lessons, acoustic guitar, electric guitar, guitar tuner, 911 tabs