Guitar Tabs for Terminal Paradise

(/) Slide Up  (\) Slide Down  (h) Hammer On  (p) Pull Off  (b) Bend (r) Release (v) Vibrato (x) Muted

Tabs for Song : 
BPM : 210
Capo on third fret
verse
E|-------------------------------------------------------------------------------------------------------------------------------------------------------------------------------------------------------
B|-----------------------------------------------------------------------------------------------------------------------------------------------------------0-----------------0-----------------0-----------
G|-----------------------------0-----------------0-----------------0--------------------------------2--0-----0--------2--0-----0--------2--0-----0-----6-----------6-----6-----------6-----6-----------6--6--
D|-----------0--2--4-----4-----------4-----4-----------4-----4-----------4-----------0--2--4-----4--------4--------4--------4--------4--------4-----------5-----------------5-----------------5--------------
A|--0--2--4-----------------2-----------------2-----------------2-----------0--2--4-----------2-----------------2-----------------2-----------------7-----------------7--------------------------------------
E|--------------------0-----------------0-----------------0-----------------------------------------------------------------------------------------------------------------------------5--------------------
hook
E|--------------------------------------------------------------------------
B|--------------------------------------------------------------------------
G|-----------0-----------------0-----------------0-----------------0--------
D|-----4-----------4-----4-----------4-----4-----------4-----4-----------4--
A|--------5-----------------5-----------------5-----------------5-----------
E|--3-----------------2-----------------3-----------------2-----------------
chorus
E|--
B|--
G|--
D|--
A|--
E|--

Paste any tab in acousterr's tab maker and we'll play it !!!
Now supports capo and sound effects for vibrato/pull-off/hammer/bends/mutes etc !!! Checkout help section
tabs and chords, guitar tabs, music transcription, music technology, deep learning, music information retrieval, transcribe into tabs & chords, chordify, music renditions, songsterr, reverbnation, tabulature, bollywood chords, ultimate guitar, yousician, guitar lessons, acoustic guitar, electric guitar, guitar tuner, 911 tabs