Guitar Tabs for Coldplay - Paradise

Coldplay - Paradise

CAPO in 3rd Fret

Intro

  Em7(9)  G9    D     A9 
E|--2-----3-----2-----0--
B|--3-----3-----3-----0--
G|--0-----2-----2-----2--
D|--2-----0-----0-----2--
A|--2-----------------0--
E|--0-----3--------------

  Em7(9)        G9
Whoa-oh-oh oh-oooh oh-oh-oh
E|--2-----------3--------
B|--3-----------3--------
G|--0-----------2--------
D|--2-----------0--------
A|--2--------------------
E|--0-----------3--------

  D             A9
Whoa-oh-oh  oh-oooh oh-oh-oh
E|--2-----------0-----------
B|--3-----------0-----------
G|--2-----------2-----------
D|--0-----------2-----------
A|--------------0-----------
E|--------------------------

1st Verse

    Bm                   G
   When she was  just a  girl
E|--2--------------------3--
B|--3--------------------3--
G|--4--------------------4--
D|--4--------------------5--
A|--2--------------------5--
E|-----------------------3--

    D                 A9
   She expected  the world
E|--2-----------------0--
B|--3-----------------0--
G|--2-----------------2--
D|--0-----------------2--
A|--------------------0--
E|-----------------------

       Bm                   G
But it flew away from  her reach
E|-----2--------------------3--
B|-----3--------------------3--
G|-----4--------------------4--
D|-----4--------------------5--
A|-----2--------------------5--
E|--------------------------3--
       D                 A9
So she ran away in her sleep
E|-----2-----------------0--
B|-----3-----------------0--
G|-----2-----------------2--
D|-----0-----------------2--
A|-----------------------0--
E|--------------------------

                Em       G
And dreamed of para-para   paradise
E|--------------0--------3--------
B|--------------0--------3--------
G|--------------0--------4--------
D|--------------2--------5--------
A|--------------2--------5--------
E|--------------0--------3--------

    D        A9
   Para-para    paradise
E|--2--------0--------
B|--3--------0--------
G|--2--------2--------
D|--0--------2--------
A|-----------0--------
E|--------------------

       Em       G
      Para-para   paradise
E|-----0--------3--------
B|-----0--------3--------
G|-----0--------4--------
D|-----2--------5--------
A|-----2--------5--------
E|-----0--------3--------

    D              A9
   Every time she closed her eyes
E|--2--------------0-----------
B|--3--------------0-----------
G|--2--------------2-----------
D|--0--------------2-----------
A|-----------------0-----------
E|-----------------------------

Bridge

  Em7(9)  G9    D     A9 
E|--2-----3-----2-----0--
B|--3-----3-----3-----0--
G|--0-----2-----2-----2--
D|--2-----0-----0-----2--
A|--2-----------------0--
E|--0-----3--------------

  Em7(9)        G9
Whoa-oh-oh oh-oooh oh-oh-oh
E|--2-----------3--------
B|--3-----------3--------
G|--0-----------2--------
D|--2-----------0--------
A|--2--------------------
E|--0-----------3--------

  D             A9
Whoa-oh-oh  oh-oooh oh-oh-oh
E|--2-----------0-----------
B|--3-----------0-----------
G|--2-----------2-----------
D|--0-----------2-----------
A|--------------0-----------
E|--------------------------

2nd Verse

    Bm                   G
   When she was  just a  girl
E|--2--------------------3--
B|--3--------------------3--
G|--4--------------------4--
D|--4--------------------5--
A|--2--------------------5--
E|-----------------------3--

    D                 A9
   She expected  the world
E|--2-----------------0--
B|--3-----------------0--
G|--2-----------------2--
D|--0-----------------2--
A|--------------------0--
E|-----------------------

       Bm                   G
But it flew away from  her reach
E|-----2--------------------3--
B|-----3--------------------3--
G|-----4--------------------4--
D|-----4--------------------5--
A|-----2--------------------5--
E|--------------------------3--
       D                    A9
  And bullets catch in her teeth
E|-----2--------------------0--
B|-----3--------------------0--
G|-----2--------------------2--
D|-----0--------------------2--
A|--------------------------0--
E|-----------------------------

Pre-Chorus

    Em                G
   Life goes on, it  gets so heavy
E|--0-----------------3-----------
B|--0-----------------3-----------
G|--0-----------------4-----------
D|--2-----------------5-----------
A|--2-----------------5-----------
E|--0-----------------3-----------

      D9/F#           A9
  The wheel breaks the butterfly
E|-----0--------------0--------
B|-----3--------------0--------
G|-----2--------------2--------
D|-----0--------------2--------
A|--------------------0--------
E|-----2-----------------------

    G             D9/F#
   Every tear, a  waterfall
E|--3--------------0--------
B|--3--------------3--------
G|--4--------------2--------
D|--5--------------0--------
A|--5-----------------------
E|--3--------------2--------

        Bm               D
In the night, the stormy night
E|-----2-----------------2-----
B|-----3-----------------3-----
G|-----4-----------------2-----
D|-----4-----------------0-----
A|-----2-----------------------
E|-----------------------------

                A9
 She closed her eyes
E|--------------0-----
B|--------------0-----
G|--------------2-----
D|--------------2-----
A|--------------0-----
E|--------------------

       G                 D 
In the night, the stormy night
E|-----3-----------------2--
B|-----3-----------------3--
G|-----4-----------------2--
D|-----5-----------------0--
A|-----5--------------------
E|-----3--------------------

             A9
  Away she'd fly
E|-----------0--
B|-----------0--
G|-----------2--
D|-----------2--
A|-----------0--
E|--------------

Chorus

                Em       G
 And dreams of para-para   paradise
E|--------------0--------3--------
B|--------------0--------3--------
G|--------------0--------4--------
D|--------------2--------5--------
A|--------------2--------5--------
E|--------------0--------3--------

    D        A9
   Para-para    paradise
E|--2--------0--------
B|--3--------0--------
G|--2--------2--------
D|--0--------2--------
A|-----------0--------
E|--------------------

   Em       G
    Para-para   paradise
E|--0--------3--------
B|--0--------3--------
G|--0--------4--------
D|--2--------5--------
A|--2--------5--------
E|--0--------3--------

    D                 A9
   Whoa-oh-oh oh-oooh oh-oh-oh
E|--2-----------------0-----------
B|--3-----------------0-----------
G|--2-----------------2-----------
D|--0-----------------2-----------
A|--------------------0-----------
E|--------------------------------

                Em       G
She dreams with para-para   paradise
E|--------------0--------3--------
B|--------------0--------3--------
G|--------------0--------4--------
D|--------------2--------5--------
A|--------------2--------5--------
E|--------------0--------3--------

    D        A9
   Para-para    paradise
E|--2--------0--------
B|--3--------0--------
G|--2--------2--------
D|--0--------2--------
A|-----------0--------
E|--------------------

   Em       G
    Para-para   paradise
E|--0--------3--------
B|--0--------3--------
G|--0--------4--------
D|--2--------5--------
A|--2--------5--------
E|--0--------3--------

    D                 A9
   Whoa-oh-oh oh-oooh oh-oh-oh
E|--2-----------------0-----------
B|--3-----------------0-----------
G|--2-----------------2-----------
D|--0-----------------2-----------
A|--------------------0-----------
E|-------------------------------- 

Tension

    Em    A     Bm    D9    A 
E|--0-----0-----2-----0-----0--
B|--0-----2-----3-----3-----2--
G|--0-----2-----4-----2-----2--  2x
D|--2-----2-----4-----0-----2--
A|--2-----0-----2-----------0--
E|--0--------------------------

    Em             A                 Bm          D9    A
   La-ra-ra-ra-ra-rara- La-ra-ra-ra-rara La-ra-ra-rara
E|--0--------------0-----------------2-----------0-----0--
B|--0--------------2-----------------3-----------3-----2--
G|--0--------------2-----------------4-----------2-----2--  
D|--2--------------2-----------------4-----------0-----2--
A|--2--------------0-----------------2-----------------0--
E|--0-----------------------------------------------------

Pre-Chorus

       G           D                 A9
And so lying underneath those stormy skies
E|-----3-----------2-----------------0-----
B|-----3-----------3-----------------0-----
G|-----4-----------2-----------------2-----
D|-----5-----------0-----------------2-----
A|-----5-----------------------------0-----
E|-----3-----------------------------------

          G              D
She said oh-oh-oh-oh-oh-oh
E|--------3--------------2--
B|--------3--------------3--
G|--------4--------------2--
D|--------5--------------0--
A|--------5-----------------
E|--------3-----------------

             A9
 I know the sun must set to rise
E|-----------0-----------------
B|-----------0-----------------
G|-----------2-----------------
D|-----------2-----------------
A|-----------0-----------------
E|-----------------------------

2nd Chorus

                Em       G
  This could be para-para   paradise
E|--------------0--------3--------
B|--------------0--------3--------
G|--------------0--------4--------
D|--------------2--------5--------
A|--------------2--------5--------
E|--------------0--------3--------

    D        A9
   Para-para    paradise
E|--2--------0--------
B|--3--------0--------
G|--2--------2--------
D|--0--------2--------
A|-----------0--------
E|--------------------

   Em       G
    Para-para   paradise
E|--0--------3--------
B|--0--------3--------
G|--0--------4--------
D|--2--------5--------
A|--2--------5--------
E|--0--------3--------

    D                 A9
   Whoa-oh-oh oh-oooh oh-oh-oh
E|--2-----------------0-----------
B|--3-----------------0-----------
G|--2-----------------2-----------
D|--0-----------------2-----------
A|--------------------0-----------
E|--------------------------------

                Em       G
  This could be para-para   paradise
E|--------------0--------3--------
B|--------------0--------3--------
G|--------------0--------4--------
D|--------------2--------5--------
A|--------------2--------5--------
E|--------------0--------3--------

    D        A9
   Para-para    paradise
E|--2--------0--------
B|--3--------0--------
G|--2--------2--------
D|--0--------2--------
A|-----------0--------
E|--------------------

   Em       G
    Para-para   paradise
E|--0--------3--------
B|--0--------3--------
G|--0--------4--------
D|--2--------5--------
A|--2--------5--------
E|--0--------3--------

    D                 A9
   Whoa-oh-oh oh-oooh oh-oh-oh
E|--2-----------------0-----------
B|--3-----------------0-----------
G|--2-----------------2-----------
D|--0-----------------2-----------
A|--------------------0-----------
E|--------------------------------

Guitar Solo

E|-----------------------------7--
B|---5/8--8--8--8--8--8--8--7-----
G|--------------------------------
D|--------------------------------
A|--------------------------------
E|--------------------------------
                                      2x
E|-----------------------------5--
B|---5/7--7--7--7--7--7--7--5-----
G|--------------------------------
D|--------------------------------
A|--------------------------------
E|--------------------------------

Last Chorus

                Em       G
  This could be para-para   paradise
E|--------------0--------3--------
B|--------------0--------3--------
G|--------------0--------4--------
D|--------------2--------5--------
A|--------------2--------5--------
E|--------------0--------3--------

    D        A9
   Para-para    paradise
E|--2--------0--------
B|--3--------0--------
G|--2--------2--------
D|--0--------2--------
A|-----------0--------
E|--------------------

   Em       G
    Para-para   paradise
E|--0--------3--------
B|--0--------3--------
G|--0--------4--------
D|--2--------5--------
A|--2--------5--------
E|--0--------3--------

    D                 A9
   Whoa-oh-oh oh-oooh oh-oh-oh
E|--2-----------------0-----------
B|--3-----------------0-----------
G|--2-----------------2-----------
D|--0-----------------2-----------
A|--------------------0-----------
E|--------------------------------
tabs and chords, guitar tabs, music transcription, music technology, deep learning, music information retrieval, transcribe into tabs & chords, chordify, music renditions, songsterr, reverbnation, tabulature, bollywood chords, ultimate guitar, yousician, guitar lessons, acoustic guitar, electric guitar, guitar tuner, 911 tabs