Guitar Tabs for Tere sang yaara

Tere sang yaara khush rang bahara

karam khudaya hai
E|--------------------------------
B|--------1--1--1-----1--2--1-----
G|--3--3-----------3--------------
D|--------------------------------
A|--------------------------------
E|--------------------------------

tujhe mjhse milaya hai
E|--------------------------------------
B|-----------------------------1--------
G|--3--3--3--3--3-----3--1--3-----1-----
D|--------------------------------------
A|--------------------------------------
E|--------------------------------------

tujhpe marke hi to
E|-----------------------------
B|--------1--1-----1--2--1-----
G|--3--3--------3--------------
D|-----------------------------
A|-----------------------------
E|-----------------------------

mujhe jeena aya h
E|--------------------------------------
B|----------------------------1---------
G|--3--3---3--3--3---3-1--3------1------
D|----------------------------------3---
A|--------------------------------------
E|--------------------------------------

tere sang yaara 
E|-----------------------------
B|--1--1--2--1--2--1-----4-----
G|--------------------3--------
D|-----------------------------
A|-----------------------------
E|-----------------------------

khush rang bahara
E|-----------------------------------
B|--1--1--1-----1--2--1-----1--------
G|-----------3-----------3-----3--1--
D|-----------------------------------
A|-----------------------------------
E|-----------------------------------

tabs and chords, guitar tabs, music transcription, music technology, deep learning, music information retrieval, transcribe into tabs & chords, chordify, music renditions, songsterr, reverbnation, tabulature, bollywood chords, ultimate guitar, yousician, guitar lessons, acoustic guitar, electric guitar, guitar tuner, 911 tabs