Guitar Tabs for Tere hoke rahenge

Tabs for Song : Tere hoke rahenge

Kal the miley, phir kyun lage aise
E|--1-----------1--------1-----------------
B|-----4--2--4--------4-----4--2--1--------
G|-----------------------------------3-----
D|-----------------------------------------
A|-----------------------------------------
E|-----------------------------------------

Tumse miley.. arsaa hua jaise
E|-----------------------2--2--1-----1-----
B|-----1-----4-----1--4-----------4--------
G|--3-----3--------------------------------
D|-----------------------------------------
A|-----------------------------------------
E|-----------------------------------------

Ab tu bataa.. jo ho pataa..
E|--1--2--4--4--------1-----1--2-----
B|-----------------4-----4-----------
G|-----------------------------------
D|-----------------------------------
A|-----------------------------------
E|-----------------------------------

Tere bina lamha lamha jiyenge kaise
E|--------2--1--1--2--1--1--2--1--------------------------
B|--2--4-----------------------------4--2--4--2--1--------
G|--------------------------------------------------3-----
D|--------------------------------------------------------
A|--------------------------------------------------------
E|--------------------------------------------------------

Teri baahon ka ghera
E|--------1-----------------1-----
B|-----------4--4--2--4--4--------
G|--3--3--------------------------
D|--------------------------------
A|--------------------------------
E|--------------------------------

Badaa mehfooz lage hai
E|--------1-----------------1-----
B|-----------4--4--2--4--4--------
G|--3--3--------------------------
D|--------------------------------
A|--------------------------------
E|--------------------------------

Badi bekhauf jagah hai ye.. oo oo..
E|--1--1--2--1-----------------------1-----1-----
B|--------------4--4--2--4--1-----------4--------
G|-----------------------------3--3--------------
D|-----------------------------------------------
A|-----------------------------------------------
E|-----------------------------------------------

Inme hi rehna chaahein, teri panaahein
E|-----------------------------------------------
B|--2--2--------2--2-----1--1-----1--2--1--------
G|--------3--3--------3--------1-----------3-----
D|-----------------------------------------------
A|-----------------------------------------------
E|-----------------------------------------------

ab tak hai jeena chahenge, oo oo..
E|-----------------------1--2--1-----------------
B|--------2--2--4--4--2--------------2-----2-----
G|--3--3--------------------------3-----3--------
D|-----------------------------------------------
A|-----------------------------------------------
E|-----------------------------------------------

Tere hoke rahenge, oo oo..
E|-----------------------------------------------
B|--2--2--2--1--2--1-----------------2-----2-----
G|--------------------3--1--1--3--3-----3--------
D|-----------------------------------------------
A|-----------------------------------------------
E|-----------------------------------------------

Dil zid pe adaa hai, oo oo..
E|-----------------------------------------------
B|--2--2--2--1--2--1-----------------2-----2-----
G|--------------------3--1--1--3--3-----3--------
D|-----------------------------------------------
A|-----------------------------------------------
E|-----------------------------------------------

Tere hoke rahenge, oo oo..
E|-----------------1--------------------------------
B|--2--2--4--2--4-----4--2--2--1-----------2--2-----
G|--------------------------------3--3--3-----------
D|--------------------------------------------------
A|--------------------------------------------------
E|--------------------------------------------------

Tera shauq chadha hai, oo.. oo o..
E|-----------------1--------------------------------
B|--2--2--4--2--4-----4--2--2--1-----------2--2-----
G|--------------------------------3--3--3-----------
D|--------------------------------------------------
A|--------------------------------------------------
E|--------------------------------------------------

 
tabs and chords, guitar tabs, music contests, music covers, songsterr, reverbnation, renditions, tabulature, bollywood chords, ultimate guitar, yousician, guitar lessons, torrins, fender, gibson, acoustic guitar, electric guitar, youtube covers, gootar, guitar tuner, A-Z tabs, 911 tabs