Guitar Tabs for Tere bina zindgi se koi

Tabs for Song : Tere bina zindagi se

Tere bina zindagi se koyi,
E|--------------------------------------
B|--------1--3--1-----1-----------------
G|--0--1-----------1-----1--0--0--------
D|--------------------------------1-----
A|--------------------------------------
E|--------------------------------------

shikwa, to nahi,
E|-----------------------------
B|-----------------------------
G|--3--3--0-----0--3--3--1-----
D|-----------------------------
A|-----------------------------
E|-----------------------------

shikwa nahi, shikwa nahi, shikwa nahi
E|--------------------------------------------------------------
B|-----------------------------------1--------------------------
G|--0--------0--0--------0--1--3--3-----3--1--0-----1--1--0-----
D|-----1--3--------3--3--------------------------3--------------
A|--------------------------------------------------------------
E|--------------------------------------------------------------

Tere bina zindagi bhi lekin,
E|--------------------------------------
B|--------1--3--1-----1-----------------
G|--0--1-----------1-----1--0--0--------
D|--------------------------------1-----
A|--------------------------------------
E|--------------------------------------

zindagi, to nahi,
E|-----------------------------
B|-----------------------------
G|--3--3--0-----0--3--3--1-----
D|-----------------------------
A|-----------------------------
E|-----------------------------

zindagi nahi, zindagi nahi, zindagi nahi
E|--------------------------------------------------------------
B|-----------------------------------1--------------------------
G|--0--------0--0--------0--1--3--3-----3--1--0-----1--1--0-----
D|-----1--3--------3--3--------------------------3--------------
A|--------------------------------------------------------------
E|--------------------------------------------------------------

Kaash aisa ho tere qadmo se,
E|-----------------------------------------
B|--1-----1--0--0--1--1--1--1--------1-----
G|-----------------------------3--3--------
D|-----------------------------------------
A|-----------------------------------------
E|-----------------------------------------

chun ke manzil chale
E|--------------------------
B|--1--1--------1--1--------
G|--------2--2--------2-----
D|--------------------------
A|--------------------------
E|--------------------------
 
aur kahi door kahi - 2
E|--------1-----------------
B|-----1-----3--------1-----
G|--2-----------3--3--------
D|--------------------------
A|--------------------------
E|--------------------------

Tum gar saath ho,
E|--------------------------------------
B|--3--3-----------3--------------------
G|--------3--3--3-----2--2--2--0--------
D|--------------------------------3-----
A|--------------------------------------
E|--------------------------------------

manzilo ki kami to nahi
E|--------------------------------------
B|-----------------------------1--------
G|-----0--2-----0--2--0--0--1--------0--
D|--3--------3--------------------------
A|--------------------------------------
E|--------------------------------------

Tere bina zindagi se koyi,
E|--------------------------------------
B|--------1--3--1-----1-----------------
G|--0--1-----------1-----1--0--0--------
D|--------------------------------1-----
A|--------------------------------------
E|--------------------------------------

shikwa, to nahi
E|-----------------------------
B|-----------------------------
G|--3--3--0-----0--3--3--1-----
D|-----------------------------
A|-----------------------------
E|-----------------------------

shikwa nahi, shikwa nahi, shikwa nahi
E|--------------------------------------------------------------
B|-----------------------------------1--------------------------
G|--0--------0--0--------0--1--3--3-----3--1--0-----1--1--0-----
D|-----1--3--------3--3--------------------------3--------------
A|--------------------------------------------------------------
E|--------------------------------------------------------------


tabs and chords, guitar tabs, music contests, music covers, songsterr, reverbnation, renditions, tabulature, bollywood chords, ultimate guitar, yousician, guitar lessons, torrins, fender, gibson, acoustic guitar, electric guitar, youtube covers, gootar, guitar tuner, A-Z tabs, 911 tabs