Guitar Tabs for Tere Bina Saza Rooh

(/) Slide Up  (\) Slide Down  (h) Hammer On  (p) Pull Off  (b) Bend (r) Release (v) Vibrato (x) Muted

Tabs & Chords
BPM : 89.0
Check Track 2 for Chord Positions 

    E                    C#m                                    G#m                     A     
E|-----0--0-----------------------------------------------------------------------------------
B|--9--------0--------0--------0--------0-----0--------------------0--------------------0-----
G|--------------------------------------------------8--8--8--0-----------8--8-----------------
D|-----------------8-----11-10----11-------11----11-------------------------------11-11----11-
A|--------------------------------------------------------------11----------------------------
E|--------------------------------------------------------------------------------------------

                         E                 B           C#m                  G#m               
E|--------------------------------------------------------------------------------------------
B|--------0-----------------0--------------------------------------9--9--9--9--9--------------
G|-----------------------------------8--8--8-----8--8--------11-------------------11-11-8--8--
D|--10-11----11-11----------------11----------11-------11-------------------------------------
A|--------------------11-11-------------------------------------------------------------------
E|--------------------------------------------------------------------------------------------

                      A                          E           B              C#m               
E|-----------------------------------------------------0-----0--------------------------------
B|--------------------0-----0--------------------0--0-----------0--------------0--------------
G|--8-----8--8--8--8--------------8--8--8--------------------------8--8--------------8--------
D|-----11----------------11----11----------11-------------------------------11----11-------11-
A|--------------------------------------------------------------------------------------------
E|--------------------------------------------------------------------------------------------

             G#m                        
E|--------------------------------------
B|--------------------0--0--0-----------
G|-----------8--------------------8--8--
D|--11-11----------------------11-------
A|--------------11-11-------------------
E|--------------------------------------

Guitar Tabs for Tere Bina Saza Rooh






    E                    C#m                                    G#m                     A     
E|--0--------------------4--------------------------------------4-----------------------0-----
B|--0--------------------5--------------------------------------4-----------------------2-----
G|--1--------------------6--------------------------------------4-----------------------2-----
D|--2--------------------6--------------------------------------6-----------------------2-----
A|--2--------------------4--------------------------------------6-----------------------0-----
E|--0-----------------------------------------------------------4-----------------------------

                         E                 B           C#m                  G#m               
E|-----------------------0-----------------2-----------4--------------------4-----------------
B|-----------------------0-----------------4-----------5--------------------4-----------------
G|-----------------------1-----------------4-----------6--------------------4-----------------
D|-----------------------2-----------------4-----------6--------------------6-----------------
A|-----------------------2-----------------2-----------4--------------------6-----------------
E|-----------------------0--------------------------------------------------4-----------------

                      A                          E           B              C#m               
E|--------------------0--------------------------0-----------2--------------4-----------------
B|--------------------2--------------------------0-----------4--------------5-----------------
G|--------------------2--------------------------1-----------4--------------6-----------------
D|--------------------2--------------------------2-----------4--------------6-----------------
A|--------------------0--------------------------2-----------2--------------4-----------------
E|-----------------------------------------------0--------------------------------------------

             G#m                        
E|-----------4--------------------------
B|-----------4--------------------------
G|-----------4--------------------------
D|-----------6--------------------------
A|-----------6--------------------------
E|-----------4--------------------------

tabs and chords, guitar tabs, music transcription, music technology, deep learning, music information retrieval, transcribe into tabs & chords, chordify, music renditions, songsterr, reverbnation, tabulature, bollywood chords, ultimate guitar, yousician, guitar lessons, acoustic guitar, electric guitar, guitar tuner, 911 tabs