Guitar Tabs for Tera hero idher hai

Tabs for Song : Tera Hero Idher Hai

dekha hai tujhko jabse,haye mein to hil gaya
E|--------------------------------------------
B|--0--0--1--0--------------------0-----1-----
G|--------------2--2--2-----0--2-----2--------
D|--------------------------------------------
A|--------------------------------------------
E|--------------------------------------------

Lagta hai mere seene se dil nikal gaya
E|--------------------------------------------
B|--0--0--0--1--0-----------------0-----------
G|-----------------2--2--2--0--2-----2--2-----
D|--------------------------------------------
A|--------------------------------------------
E|--------------------------------------------

mummy se kya daddy se bhi milaunga tujhe
E|-----------------------------0--1--0-----------0-----
B|--------0--3--3--3--3--3--3--------------3--3--------
G|--2--2-----------------------------------------------
D|-----------------------------------------------------
A|-----------------------------------------------------
E|-----------------------------------------------------

arey jo bhi mein kahu
E|--0--0--0--1--0-----------
B|-----------------3--3-----
G|--------------------------
D|--------------------------
A|--------------------------
E|--------------------------

tujhe lagta hai kyn galat
E|--0-----------------------------
B|-----3--1--1--3--1--------0-----
G|--------------------2-----------
D|--------------------------------
A|--------------------------------
E|--------------------------------

tera dhyan kidher hai
E|-----------------------------
B|-----------0--1--0--0--------
G|--2--2--2--------------2-----
D|-----------------------------
A|-----------------------------
E|-----------------------------

ye tera hero idher hai
E|-----------------------------
B|--3--3--3--1--1--0--0--------
G|-----------------------2-----
D|-----------------------------
A|-----------------------------
E|-----------------------------

tera dheyan kidher hai
E|--0--0--0--0--1--0-----------
B|--------------------3--3-----
G|-----------------------------
D|-----------------------------
A|-----------------------------
E|-----------------------------

ye tera hero idher hai
E|--------------------------------
B|--1--1--1--3--1--0--------0-----
G|--------------------2-----------
D|--------------------------------
A|--------------------------------
E|--------------------------------

tujhe itni bhi khabar hai
E|-----------------------------
B|-----------0--1--0--0--------
G|--2--2--2--------------2-----
D|-----------------------------
A|-----------------------------
E|-----------------------------

ki tera hero idher hai
E|-----------------------------
B|--3--3--3--1--1--0--0--------
G|-----------------------2-----
D|-----------------------------
A|-----------------------------
E|-----------------------------


tabs and chords, guitar tabs, music contests, music covers, songsterr, reverbnation, renditions, tabulature, bollywood chords, ultimate guitar, yousician, guitar lessons, torrins, fender, gibson, acoustic guitar, electric guitar, youtube covers, gootar, guitar tuner, A-Z tabs, 911 tabs