Guitar Tabs for Main Hu Hero Tera - Salman Khan Tabs

Tabs for Song : mein hu hero tera

ankho ke panno se
E|--------------------------------
B|--------1--1--------------------
G|--1--3-----------1-----0--1-----
D|--------------------------------
A|--------------------------------
E|--------------------------------

mene likha tha sau dafa
E|--------------------------------
B|--------1--1--------------------
G|--1--3--------1--1--3--1--0-----
D|--------------------------------
A|--------------------------------
E|--------------------------------

lafzo mein jo ishq tha
E|--------------------------------
B|--------1--1--------------------
G|--1--3-----------1-----0--1-----
D|--------------------------------
A|--------------------------------
E|--------------------------------

hua na hontho se baya
E|--------------------------------
B|--------1--1--------------------
G|--1--3--------1--1--3--1--0-----
D|--------------------------------
A|--------------------------------
E|--------------------------------

khud se naraz hu
E|--------------------------
B|--------4--4-----2--1-----
G|--1--1--------------------
D|--------------------------
A|--------------------------
E|--------------------------

kyn be-awaaz hoon
E|--------------------------
B|--------4--4-----2--1-----
G|--1--1--------------------
D|--------------------------
A|--------------------------
E|--------------------------

meri khamoshiyan hai saza
E|-----------------------------------------
B|--------2--2--1--2--4-----2--1-----------
G|--------------------------------3--3-----
D|--3--3-----------------------------------
A|-----------------------------------------
E|-----------------------------------------

dil hai ye sochata
E|--------------------------
B|--------4--4-----2--1-----
G|--1--1--------------------
D|--------------------------
A|--------------------------
E|--------------------------

fir bhi nhi pta
E|--------------------------
B|--------4--4-----2--1-----
G|--1--1--------------------
D|--------------------------
A|--------------------------
E|--------------------------

kis haq se kahun bata
E|-----------------------------
B|--------1-----1--4--1--------
G|-----------------------3-----
D|--3--3-----------------------
A|-----------------------------
E|-----------------------------

ke mein hu hero tera
E|-----------------------------------
B|-----------------------------------
G|--1--1--3--1-----1-----------1-----
D|--------------3-----------3--------
A|-----------------------------------
E|-----------------------------------

ke mein hu hero tera
E|-----------------------------------
B|-----------------------------------
G|--1--1--3--1-----1-----------1-----
D|--------------3-----------3--------
A|-----------------------------------
E|-----------------------------------

tabs and chords, guitar tabs, music contests, music covers, songsterr, reverbnation, renditions, tabulature, bollywood chords, ultimate guitar, yousician, guitar lessons, torrins, fender, gibson, acoustic guitar, electric guitar, youtube covers, gootar, guitar tuner, A-Z tabs, 911 tabs