Guitar Tabs for Temple Of The King - Rainbow Tabs

(/) Slide Up  (\) Slide Down  (h) Hammer On  (p) Pull Off  (b) Bend (r) Release (v) Vibrato

Temple of the King - Rainbow Tabs for Intro , song and Solo

Intro
E|--------------------------------
B|--5-----3--5--3--1--3--1--------
G|--------------------------2-----
D|--------------------------------
A|--------------------------------
E|--------------------------------

E|--------------------------------
B|--3-----3--5--3--1--3--0--------
G|--------------------------2-----
D|--------------------------------
A|--------------------------------
E|--------------------------------

One day in the year of the fox
E|--------------------------
B|--5--5--------------------
G|--------5--5--7--7--5--7--
D|--------------------------
A|--------------------------
E|--------------------------

Came a time remembered well
E|-----------------------
B|-----------------------
G|-----5--7--5--7--5-----
D|--7-----------------7--
A|-----------------------
E|-----------------------

When the strong young man of the rising sun heard the
E|--------------------------------------
B|--------------------3-----------------
G|--2--2--5--5--5--5-----4--2--0--0--0--
D|--------------------------------------
A|--------------------------------------
E|--------------------------------------

Tolling of the great black bell
E|--------------------------
B|--------------1-----------
G|--2--2--2--0-----2--0--2--
D|--------------------------
A|--------------------------
E|--------------------------

One day in the year of the fox when the
E|-----------3--------------------
B|--5--5--5-----3--3--1--3--3--1--
G|--------------------------------
D|--------------------------------
A|--------------------------------
E|--------------------------------

When the bell began to ring
E|-----------------------
B|--3-----3--5--3--1-----
G|--------------------2--
D|-----------------------
A|-----------------------
E|-----------------------

it meant the Time had come for the one to go to the
E|-----------------------------------------
B|-----------1--1--1--1--3-----------------
G|--2--2--2-----------------4--2--0--0--0--
D|-----------------------------------------
A|-----------------------------------------
E|-----------------------------------------

Temple of the king
E|-----------------
B|-----1-----------
G|--2-----2--0--2--
D|-----------------
A|-----------------
E|-----------------

There in the middle of the circle he stands
E|-----------------------------------
B|--3--3--1--3--1--3--1--3--1--3--5--
G|-----------------------------------
D|-----------------------------------
A|-----------------------------------
E|-----------------------------------

Seaching Seeking
E|--------------------
B|--------------------
G|--5--------5--------
D|-----7--------7-----
A|--------------------
E|--------------------

Solo
E|--------------------8-----------
B|--------------10----------------
G|--12----10-12-------------9-----
D|--------------------------------
A|--------------------------------
E|--------------------------------


E|--------8-----8-----12----10-8---8/10----
B|-----10----------------------------------
G|--12-------------------------------------
D|-----------------------------------------
A|-----------------------------------------
E|-----------------------------------------


E|-----10-10----12\7-----7--8-----7--8--------
B|--13----------------------------------6-----
G|--------------------------------------------
D|--------------------------------------------
A|--------------------------------------------
E|--------------------------------------------


E|--------------12----10-12-------------------
B|--8--10-13----------------13----------------
G|--------------------------------10-12-------
D|--------------------------------------14----
A|--------------------------------------------
E|--------------------------------------------


E|-----------------------------------
B|--------13-15----13-15-17-17/18----
G|--12-14----------------------------
D|-----------------------------------
A|-----------------------------------
E|-----------------------------------
tabs and chords, guitar tabs, music contests, music covers, songsterr, reverbnation, renditions, tabulature, bollywood chords, ultimate guitar, yousician, guitar lessons, torrins, fender, gibson, acoustic guitar, electric guitar, youtube covers, gootar, guitar tuner, A-Z tabs, 911 tabs