Guitar Tabs for Tanya Sama Itu Hud Hud

(/) Slide Up  (\) Slide Down  (h) Hammer On  (p) Pull Off  (b) Bend (r) Release (v) Vibrato (x) Muted

Tabs for Song : 

Song lyrics here
E|--8--8--7--8--7-----------------------------------------------------------
B|-----------------10-10----8--10-8-----------------------------------------
G|-----------------------------------9--9--------7--9--7--5-----4-----4--5--
D|-----------------------------------------------------------------7--------
A|--------------------------------------------------------------------------
E|--------------------------------------------------------------------------

E|-----------------------------------------------------------------------------------------------
B|-----------------------------------------------------------------------------------------------
G|---2\5--5--------4--5--4-----------------------------------------------------------------------
D|--------------------------7--7--------5--7--5--------------------------------------------------
A|-----------------------------------------------7--7--------5--7--5-----3--5--3-----2--3--2-----
E|--------------------------------------------------------------------------------------------5--

E|--8--8--7--8--7-----------------------------------------------------
B|-----------------10----10-8--10-8-----------------------------------
G|-----------------------------------9--9-----7--9--7-----------------
D|-----------------------------------------------------10-9--7--9--10-
A|--------------------------------------------------------------------
E|--------------------------------------------------------------------

Song lyrics here
E|-----7--8--
B|--10-------
G|-----------
D|-----------
A|-----------
E|-----------

Paste any tab in acousterr's tab maker and we'll play it !!!
Now supports capo and sound effects for vibrato/pull-off/hammer/bends/mutes etc !!! Checkout help section
tabs and chords, guitar tabs, music transcription, music technology, deep learning, music information retrieval, transcribe into tabs & chords, chordify, music renditions, songsterr, reverbnation, tabulature, bollywood chords, ultimate guitar, yousician, guitar lessons, acoustic guitar, electric guitar, guitar tuner, 911 tabs