Guitar Tabs for Talk To Me

(/) Slide Up  (\) Slide Down  (h) Hammer On  (p) Pull Off  (b) Bend (r) Release (v) Vibrato (x) Muted

Verse
BPM : 300
E|--------------------------------------------------------------------------------------------------------------------------------------------------------------------------------------------------------------------------------------------------------------------------------------------------------------------------------------------
B|--------------------------------------------------------------------------------------------------------------------------------------------------------------------------------------------------------------------------------------------------------------------------------------------------------------------------------------------
G|--------------------------------------------------------------------------------------------------------------------------------------------------------------------------------------------------------------------------------------------------------------------------------------------------------------------------------------------
D|--------------------------------------------------------------------------------------------------------------------------------------------------------------------------------------------------------------------------------------------------------------------------------------------------------------------------------------------
A|--------------------------------------------------------------------------------------------------------------------------------------------------------------5--7-----5-----7--------------------------------------------------------------------------------5--7-----5-----7--------------------------------------------------------------
E|--5-----------------------------------------------3--------3--------3-----5-----------------------------------------------------------5-----------------------------------------------5-----------------------3--------3--------3-----5-----------------------------------------------5--------------------------3--------3--------3-----5--




Chorus
E|-------------------------------------------------------------------------------------------------------------------------------------------------------------------------------------------------------
B|--------------------------------------------------------------------------------------------------------------------------------------------------------------------------------------------------------
G|--------------------------------------------------------------------------------------------------------------------------------------------------------------------------------------------------------
D|--------------------------------------------------------------------------------------------------------------------------------------------------------------------------------------------------------
A|--3--3--3--3--3--3--3--3-----2--2-----2--2--2--2--0--0--0--0--0--0--0--0-----0--0-----0--0--0--0--------------------------------------------------------------------------------------------------3-----
E|--------------------------------------------------------------------------------------------------1--1--1--1--1--1--1--1-----1--1-----1--1--1--1--3--3--3--3--3--3--3--3-----3--3-----3--3--3--3--------

Bridge 
E|-----------------------------------------------------------------------------------------------------
B|-----------------------------------------------------------------------------------------------------
G|-----------------------------------------------------------------------------------------------------
D|-----------------------------------------------------------------------------------------------------
A|-----------------------------------------------------------------------------------------------------
E|--5--------------------3--------------------------1--------------------1--------------------------5--

Use manual mode to free up cursor. Paste any tab in acousterr tab maker and we'll play it !!!
tabs and chords, guitar tabs, music transcription, music technology, deep learning, music information retrieval, transcribe into tabs & chords, chordify, music renditions, songsterr, reverbnation, tabulature, bollywood chords, ultimate guitar, yousician, guitar lessons, acoustic guitar, electric guitar, guitar tuner, 911 tabs