Guitar Tabs for Talk About It

(/) Slide Up  (\) Slide Down  (h) Hammer On  (p) Pull Off  (b) Bend (r) Release (v) Vibrato (x) Muted

Tabs for Song : Talk About It
BPM : 160

Intro 4x
E|--------------------------------------------------
B|--------------------------------------------------
G|--------------------------------------------------
D|--------------3--5--------------------3--3--------
A|--------5--5--------3-----------5--5--------5-----
E|--3--3-----------------3-----3--------------------
    Basically G-


Verse
E|-----------------------------------------------------------------------------------------------
B|-----------------------------------------------------------------------------------------------
G|-----------------------------------------------------------------------------------------------
D|--3-----------3-----------3-----------3-----5-----------------3--5--------------------3--------
A|--1-----------1-----------1-----------1-----3-----------5--5--------------------5--5-----3--2--
E|--------------------------------------------------3-----------------1--3-----3-----------------
    Bb                                        C
E|--------------------------------------------------------------------------------------------------------
B|--------------------------------------------------------------------------------------------------------
G|--------------------------------------------------------------------------------------------------------
D|--3-----------3-----------3-----------------3-----------------3--5--------------------------3-----------
A|--1-----------1-----------1-----------3-----1-----------5--5--------------------------5--------5--3--2--
E|--------------------------------------1-----------3-----------------1--3-----3-----3--------------------
    Bb                                  F     Bb
E|-----------------------------------------------------------------------------------------------
B|-----------------------------------------------------------------------------------------------
G|-----------------------------------------------------------------------------------------------
D|--3-----------3-----------3-----------5-----------------------3--5--------------------3--------
A|--1-----------1-----------1-----------3-----------------5--5--------------------5--5-----3--2--
E|--------------------------------------------------3--3--------------1--3-----3-----------------
    Bb                                  C

Pre-Chorus
E|-----------------------------------------------------------------------------------------------
B|-----------------------------------------------------------------------------------------------
G|-----------------------------------------------------------------------------------------------
D|--3-----------3-----------3-----------3-----------5-----------5-----------5-----------5--------
A|--1-----------1-----------1-----------1-----------3-----------3-----------3-----------3--------
E|-----------------------------------------------------------------------------------------------
    Bb                                              C                                   
E|--------------
B|--------------
G|--------------
D|--------------
A|--3-----------
E|--1-----------
    F cresc.
    
Chorus: 2x
E|-----------------------------------------------------------------------------------------------
B|-----------------------------------------------------------------------------------------------
G|-----------------------------------------------------------------------------------------------
D|-----------3--------5--------8-----------------------------3-----------5-----------8-----------
A|--5--------1--------3--------6-----6--5--3-----5-----------1-----------3-----------6-----------
E|--3-----------------------------------------6--3-----------------------------------------------
    G-       Bb       C-       Eb                G-          Bb          C-          Eb

Intro 4x
E|--------------------------------------------------
B|--------------------------------------------------
G|--------------------------------------------------
D|--------------3--5--------------------3--3--------
A|--------5--5--------3-----------5--5--------5-----
E|--3--3-----------------3-----3--------------------


Verse
E|-----------------------------------------------------------------------------------------------
B|-----------------------------------------------------------------------------------------------
G|-----------------------------------------------------------------------------------------------
D|--3-----------3-----------3-----------3-----5-----------------3--5--------------------3--------
A|--1-----------1-----------1-----------1-----3-----------5--5--------------------5--5-----3--2--
E|--------------------------------------------------3-----------------1--3-----3-----------------
    Bb                                        C
E|--------------------------------------------------------------------------------------------------------
B|--------------------------------------------------------------------------------------------------------
G|--------------------------------------------------------------------------------------------------------
D|--3-----------3-----------3-----------------3-----------------3--5--------------------------3-----------
A|--1-----------1-----------1-----------3-----1-----------5--5--------------------------5--------5--3--2--
E|--------------------------------------1-----------3-----------------1--3-----3-----3--------------------
    Bb                                  F     Bb
E|-----------------------------------------------------------------------------------------------
B|-----------------------------------------------------------------------------------------------
G|-----------------------------------------------------------------------------------------------
D|--3-----------3-----------3-----------5-----------------------3--5--------------------3--------
A|--1-----------1-----------1-----------3-----------------5--5--------------------5--5-----3--2--
E|--------------------------------------------------3--3--------------1--3-----3-----------------
    Bb                                  C
    

Pre-Chorus
E|-----------------------------------------------------------------------------------------------
B|-----------------------------------------------------------------------------------------------
G|-----------------------------------------------------------------------------------------------
D|--3-----------3-----------3-----------3-----------5-----------5-----------5-----------5--------
A|--1-----------1-----------1-----------1-----------3-----------3-----------3-----------3--------
E|-----------------------------------------------------------------------------------------------
    Bb                                              C                                   
E|--------------
B|--------------
G|--------------
D|--------------
A|--3-----------
E|--1-----------
    F cresc.

    
Chorus: 2x
E|--------------------------------------------------------------------------------------------------
B|--------------------------------------------------------------------------------------------------
G|--------------------------------------------------------------------------------------------------
D|-----------3--------5--------8-----------------------------3-----------5-----------8--------------
A|--5--------1--------3--------6-----6--5--3-----5-----------1-----------3-----------6--------------
E|--3-----------------------------------------6--3--------------------------------------------------
    G-       Bb       C-       Eb                G-          Bb          C-          Eb

Bridge
E|--------------------------------------------------------------------------------------------------
B|--------------------------------------------------------------------------------------------------
G|--------------------------------------------------------------------------------------------------
D|--------------------------------------------------8-----------8-----------8-----------8-----------
A|--3-----------3-----------3-----------3-----------6-----------6-----------6-----------6-----------
E|--1-----------1-----------1-----------1-----------------------------------------------------------
    F                                               Eb
E|--------------------------------------------------------------------------------------------------
B|--------------------------------------------------------------------------------------------------
G|--------------------------------------------------------------------------------------------------
D|--------------------------------------------------------------------------------------------------
A|--5-----------5-----------5-----------5-----------3-----------3-----------3-----------3-----------
E|--3-----------3-----------3-----------3-----------1-----------1-----------1-----------1-----------
    G-                                              F

1/2 Time
Repeat this part 2x
E|--------------------------------------------------------------------------------------------------
B|--------------------------------------------------------------------------------------------------
G|--------------------------------------------------------------------------------------------------
D|--8-----------8-----------8-----------8-----------5-----------5-----------5-----------------------
A|--6-----------6-----------6-----------6-----------3-----------3-----------3-----------3-----------
E|--------------------------------------------------------------------------------------1-----------
    Eb                                              C (major)                           F

Regular time

Chorus: 2x
E|--------------------------------------------------------------------------------------------------
B|--------------------------------------------------------------------------------------------------
G|--------------------------------------------------------------------------------------------------
D|-----------3--------5--------8-----------------------------3-----------5-----------8--------------
A|--5--------1--------3--------6-----6--5--3-----5-----------1-----------3-----------6--------------
E|--3-----------------------------------------6--3--------------------------------------------------
    G-       Bb       C-       Eb                G-          Bb          C-          Eb
 
 -- END --
tabs and chords, guitar tabs, music transcription, music technology, deep learning, music information retrieval, transcribe into tabs & chords, chordify, music renditions, songsterr, reverbnation, tabulature, bollywood chords, ultimate guitar, yousician, guitar lessons, acoustic guitar, electric guitar, guitar tuner, 911 tabs